Song name
# A B C D E F G H I J K L M N O P Q R S T U V W X Y Z

Oi Polloi - John Major Fuck You tab

-------------------------------------------------------------------------------
John Major, Fuck You - Oi Polloi
Guilty EP
-------------------------------------------------------------------------------
Tabbed by: axeslash
Email: holmzito@yahoo.com

Tuning: 
Guitar 1: Guitar is tuned 1/4 step above standard tuning (EADGBE)

Intro
e|---------------------------------------|
B|---------------------------------------|
G|-7------------------7------------------|
D|-7----6----9--------7----6----9--------|
A|-5----6----9--------5----6----9--------|
E|------4----7-------------4----7--------|

Verse:
e|---------------------------------|
B|---------------------------------|
G|-7-7-7-7-------------------------|
D|-7-7-7-7-6-6-6-6-9-9-9-9-9-9-9-9-|
A|-5-5-5-5-6-6-6-6-9-9-9-9-9-9-9-9-|
E|---------4-4-4-4-7-7-7-7-7-7-7-7-| x4

Chorus:
e|-----------------------------------------------------------------|
B|-----------------------------------------------------------------|
G|---------7-7-7-7---------7-7-7-7---------7-7-7-7---------7-7-7-7-|
D|-6-6-6-6-7-7-7-7-6-6-6-6-7-7-7-7-6-6-6-6-7-7-7-7-6-6-6-6-7-7-7-7-|
A|-6-6-6-6-5-5-5-5-6-6-6-6-5-5-5-5-6-6-6-6-5-5-5-5-6-6-6-6-5-5-5-5-|
E|-4-4-4-4---------4-4-4-4---------4-4-4-4---------4-4-4-4---------|

Verse
Chorus
Verse
Chorus
Chorus

Outro:
e|-------------|
B|-------------|
G|-7--------7\-|
D|-7--------7\-|
A|-5--------5\-|
E|-------------|


| [x]  palm mute
|  /   slide up
|  \   slide down
|  h   hammer-on
|  p   pull-off
|  ~   vibrato
|  +   harmonic
|  x   Mute note
===============================================================================
Tap to rate this tab
# A B C D E F G H I J K L M N O P Q R S T U V W X Y Z