Song name
# A B C D E F G H I J K L M N O P Q R S T U V W X Y Z

Oi Scouts - Boots For The Beatdown tab

INTRO/VERSE
e----------------------------------|
B----------------------------------|
G----------------------------------|
D--------8-10101010-----8-10101010-|
A-101010-6--8-8-8-8-888-6--8-8-8-8-|
E--8-8-8------------666------------|

CHORUS x4
e--------------------|
B--------------------|
G--------------------|
D------1010----------|
A-1010--8-8-88888888-|
E--8-8------66666666-|

SUBMITTED BY: DAN MESSING
Tap to rate this tab
 
# A B C D E F G H I J K L M N O P Q R S T U V W X Y Z