Oi Scouts - Victims tab

INTROx3|
e------|-------------------------------------|
B------|-------------------------------------|
G------|-------------------------------------|
D-10~~-|-10101010-13131313-------------------|
A--8~~-|--8-8-8-8-11111111-11111111-10101010-|
E------|--------------------9-9-9-9--8-8-8-8-|

VERSE x4
e-------------------------------------|
B-------------------------------------|
G-------------------------------------|
D-10101010-13131313-------------------|
A--8-8-8-8-11111111-11111111-10101010-|
E--------------------9-9-9-9--8-8-8-8-|

CHORUS x4
e----------------------|
B----------------------|
G----------------------|
D----------------------|
A-11-11-11-10-10-10-10-|
A--9--9--9--8--8--8--8-|

SUBMITTED BY: DAN MESSING
Tap to rate this tab
 
# A B C D E F G H I J K L M N O P Q R S T U V W X Y Z