Song name
# A B C D E F G H I J K L M N O P Q R S T U V W X Y Z

Oil - Drag Me Down tab

Oil: Drag Me Down
Written by: Deron Miller

Main Riff
-------------------------------|
-------------------------------|
-------------------------------|
---------------5--7------------|
-0--3--5-p-0---------7--5--3~--|
-------------------------------|

Verse

--------------------------------------|
--------------------------------------|
--------------------------------------|
--10--10--10--10--10--10---5--5--4--4-|
---8---8---8---8---8---8---3--3--2--2-|
--------------------------------------|


Chorus

-----------------------------------------------------|
-----------------------------------------------------|
-----------------------------------------------------|
-7--7--7----9--9--9--9--9----5--5--5---7--7--7--7--7-|
-7--7--7----9--9--9--9--9----5--5--5---7--7--7--7--7-|
-5--5--5----7--7--7--7--7----3--3--3---5--5--5--5--5-|
Please rate and comment

oil website www.myspace.com/oilbravo
Tap to rate this tab
 
# A B C D E F G H I J K L M N O P Q R S T U V W X Y Z