Guitaretab - guitar tabs
Song name
# A B C D E F G H I J K L M N O P Q R S T U V W X Y Z

Oil - Thanks For The Ride tab

Verse:
(I drive, I drive into hellview........)
---------------------------------------------------------|
---------------------------------------------------------|
---------------------------------------------------------|
---------------------------------------------------------|
-----7-7----2-2----1-1-1-1-1-1-1---2---------------------|
-----9-9----4-4----2-2-2-2-2-2-2---4---------------------|
[ Tab from: http://www.guitaretab.com/o/oil/87185.html ]
Chorus:
(I cant be alive.....)
--------------------------------------------------------|
--------------------------------------------------------|
--6-6-6-6-6-6-6-6-6-6-6-6-6-6-6-6-----------------------|
--------------------------------------------------------|
--4-4-4-4-4-4-4-4-4-4-4-4-4-4-4-4-----------------------|
--------------------------------------------------------|

(and show me how you live your life................)
--------------------------------------------------------|
--------------------------------------------------------|
-11-11-11-11-11-11-11-11-11-11-11-11-11-11-11-11--------|
--------------------------------------------------------|
-9--9--9--9--9--9--9--9--9--9--9--9--9--9--9--9---------|
--------------------------------------------------------|

Breakdown part:
----------------------------------------------------|
----------------------------------------------------|
----------------------------------------------------|
---------------------------------------------9--11--|
-4-4---7-7---------------4-4---7--4--9-7------------|
---------------4-4--7-7-----------------------------|


Please comment and rate
Related for Thanks For The Ride tab
×
Best way to learn
"Thanks For The Ride"