Song name
# A B C D E F G H I J K L M N O P Q R S T U V W X Y Z

Oingo Boingo - Just Another Day tab

-------------------------------------------------|
-------------------------------------------------|
-------------------------------------------------|4xs
-------------------------------------------------|
-5--5---5>7----------------3--3---3>5------------|
--------------5--5----5>3----------------3--3----|


--------------------------------------------------|
--------------------------------------------------|
--------------------------------------------------|?xs
---7--9--9---9----------------7--7--9-------------|
-7>5--7--7---7----9---9---9>7-5--5--7---7---7-----|
-5----------------7---7---7-5-----------5---5-----|


?xs= how many times you want

>= no beat in between

I worked really hard on this thanks for trying my tab. Feel free to add any thing to it 
would like to play the rest of the song.

Email me at coolioboyrockstar@gmail.com

Thanks!
Tap to rate this tab
# A B C D E F G H I J K L M N O P Q R S T U V W X Y Z