Song name
# A B C D E F G H I J K L M N O P Q R S T U V W X Y Z

Oingo Boingo - Who Do You Want To Be tab

here's the song "Who Do You Want To Be" by Oingo Boingo:


Main Riff/Intro:

E----------|
B----------|
G----------|
D-2--4--4--|
A-2--4--4--|
E-0--2--2--|

E------------------------|
B------------------------|
G-------------------2--4-|
D-4--4--4--2--4--4--2--4-|
A-4--4--4--2--4--4--0--2-|
E-2--2--2--0--2--2-------|

E----------|
B----------|
G----------|
D-2--4--4--|
A-2--4--4--|
E-0--2--2--|

E--------------------------|
B--------------------------|
G--------------------------|
D-4--4--4--2--4--4--7--6---|
A-4--4--4--2--4--4--7--6---|
E-2--2--2--0--2--2--5--4---|
(play that through the chorus')


Verse Riff:

 E--------------------------------------------------------------|
 B--------------------------------------------------------------|
 G--------------------------------------------------------------|
 D--------------------------------------------------------------|
 A---------------0-0--2-2---------------------------------------|
 E-0-2-0-2-0-2------------------0-2-0-2-0-2---5-5-4-3-----------|


Post Chorus/Just Like Somebody On T.V.:

E------------|
B------------|
G------------|
D------------|
A----2-----0-|
E-0-----2----|


that's basically the whole guitar parts of the song i transrcibed.
Tap to rate this tab
# A B C D E F G H I J K L M N O P Q R S T U V W X Y Z