Song name
# A B C D E F G H I J K L M N O P Q R S T U V W X Y Z

Ok Go - Get Over It tab

Title: Get Over It
Artist: Ok Go

Tuning: Standard - EADGBe

Key: 	x = muted note
	/ = slide up
	\ = slide down
	b = bend note
	(x#) = play note this many times (indicates fast notes)
	PM = palm mute


Intro (played behind last pick-up) x6
e|---------------------------------------|  
B|---------------------------------------|
G|--4--4-------------------2-2--3-3--33--|
D|--4--4--x-x-4-44-3-2--2--2-2--3-3--33--|
A|--2--2--x-x-4-44-3-2--2--0-0--1-1--11--|
E|--------x-x-2-22-1-0--0----------------|


Chorus
e|--------------------------------------|
B|--------------------------------------|
G|--7---7-------------------------------|
D|--7---7---4-4-4-4-4-4--5-5-55-7-7-77--| x3
A|--5---5---4-4-4-4-4-4--5-5-55-7-7-77--|
E|----------2-2-2-2-2-2--3-3-33-5-5-55--|

e|-----------------------------------|
B|-----------------------------------|
G|-----------------------------------|
D|--5-5-5-5-5-5-5-5-4-4-4-4-4-4-4-4--|
A|--5-5-5-5-5-5-5-5-4-4-4-4-4-4-2-2--|
E|--3-3-3-3-3-3-3-3-2-2-2-2-2-2-2-2--|


Mini-Solo 1 (Wah-Effect)
e|-----------------------------------------------------------------------|
B|-------------------------------------------------------------------11--|
G|--10-11-11-10-11-11-10-11b---10-11------10-11-11-10-11-11-10-11b-------|
D|-----------------------------------12----------------------------------|
A|-----------------------------------------------------------------------|
E|-----------------------------------------------------------------------|

e|----------------------------9/10---13-14-13-14--------------|
B|--12--12-12--10-----10--12------------------------11-14-11\--|
G|-----------------11------------------------------------------|
D|-------------------------------------------------------------|
A|-------------------------------------------------------------|
E|-------------------------------------------------------------|


Verse x4
e|---------------------------------------|  
B|---------------------------------------|
G|--4--4-------------------2-2--3-3--33--|
D|--4--4--x-x-4-44-3-2--2--2-2--3-3--33--|
A|--2--2--x-x-4-44-3-2--2--0-0--1-1--11--|
E|--------x-x-2-22-1-0--0----------------|


Chorus
e|--------------------------------------|
B|--------------------------------------|
G|--7---7-------------------------------|
D|--7---7---4-4-4-4-4-4--5-5-55-7-7-77--| x3
A|--5---5---4-4-4-4-4-4--5-5-55-7-7-77--|
E|----------2-2-2-2-2-2--3-3-33-5-5-55--|

e|-----------------------------------|
B|-----------------------------------|
G|-----------------------------------|
D|--5-5-5-5-5-5-5-5-4-4-4-4-4-4-4-4--|
A|--5-5-5-5-5-5-5-5-4-4-4-4-4-4-2-2--|
E|--3-3-3-3-3-3-3-3-2-2-2-2-2-2-2-2--|


Solo
e|--------------------------|
B|--12(x44)-14(x4)-15(x16)--|
G|--------------------------|
D|--------------------------|
A|--------------------------|
E|--------------------------|


Bridge (Wah-Effect)
e|--------------------------------------------------------|
B|--------------------------------------------------------|
G|--9--9--9--9-11--9---11---9--9--9--9-11----11-9---------|
D|------------------------------------------------12--9\--|
A|--------------------------------------------------------|
E|--------------------------------------------------------|


Bass Verse x4
e|--------------------------|  
B|--------------------------|
G|--------------------------|
D|--------------------------|
A|--2--2--------------0--1--|
E|---------2--1-0--0--------|
  |-----------PM-----------|


End Chorus
e|--------------------------------------|
B|--------------------------------------|
G|--7---7-------------------------------|
D|--7---7---4-4-4-4-4-4--5-5-55-7-7-77--| x7
A|--5---5---4-4-4-4-4-4--5-5-55-7-7-77--|
E|----------2-2-2-2-2-2--3-3-33-5-5-55--|

e|--------------------------------------|
B|--------------------------------------|
G|-----------------------------------4--|
D|--5-5-5-5-5-5-5-5-4-4-4-4-4-4-4-4--4--|
A|--5-5-5-5-5-5-5-5-4-4-4-4-4-4-2-2--2--|
E|--3-3-3-3-3-3-3-3-2-2-2-2-2-2-2-2-----|
Tap to rate this tab
# A B C D E F G H I J K L M N O P Q R S T U V W X Y Z