Song name
# A B C D E F G H I J K L M N O P Q R S T U V W X Y Z

Ok Go - Maybe This Time tab

Intro/Verse:
E|--17-17-17-13-13-12-12-8-5-5-5-8-8-8-8--|


Pre Chorus:
e|---------------------------------------------------------------------------|
B|---------------------------------------------------------------------------|
G|-----5-------/7-----9------------------------------------------------------|
D|-----5-------/7-----9------------------------------------------------------|
A|-----3-------/5-----7------------------------------------------------------|
E|---------------------------------------------------------------------------|
Chorus:
e|----------------------------------------------------------------------------|2x
B|----------------------------------------------------------------------------|
G|---7-7----7-7----7-7----7-7--7-5-7------------------------------------------|
D|---7-7----7-7----7-7----7-7------7------------------------------------------|
A|---5-5----5-5----5-5----5-5------5------------------------------------------|
E|----------------------------------------------------------------------------|

This is the first Guitar tab of the song Maybe This Time - Ok Go Any error on this tab 
me on msn or send me an email: alvinhorafael@hotmail.com. Thanks for reading this tab.
-----------------------------------------------------------------------------
Tap to rate this tab
# A B C D E F G H I J K L M N O P Q R S T U V W X Y Z