Ok Go - Youre So Damn Hot tab

Band: Ok Go
Song: You're So Damn Hot
Description: This tab is complete, if you do not understand any part, put the 
music to play and accompany the music.
By: Alvinhorafael@hotmail.com
-----------------------------------------------------------------------------
Intro:
Damian & Andy
    G     C   D
e|-3-3---3-3--5-|
B|-3-3---3-3--5-|
G|-4-4---5-5--7-|2x
D|-5-5---5-5--7-|
A|-5-5---3-3--5-|
E|-3-3---3-3--5-|

Verse:
Damian
    G               C           D
e|-3-3-------------3-3----------5-|
B|-3-3-------------3-3----------5-|
G|-4-4-------------5-5----------7-|
D|-5-5-------------5-5----------7-|3x
A|-5-5-------------3-3----------5-|
E|-3-3-------------3-3----------5-|
Andy

e|---------------------------------|
B|---------------------------------|
G|---------------------------------|
D|-----------------5-----------5/7-|3x
A|-5---------------3-3-3-3-3-3-3/5-|
E|-3-3-3-3-3-3-3-3-----------------|

Pre Chorus:

Damian: "You don't love me at all"
      G       B           E
e|-3-3-3-3-2-2-2-2-7-7-7-7-7-7-7-7-|
B|-3-3-3-3-2-2-2-2-7-7-7-7-7-7-7-7-|
G|-4-4-4-4-4-4-4-4-9-9-9-9-9-9-9-9-|
D|-5-5-5-5-4-4-4-4-9-9-9-9-9-9-9-9-|
A|-5-5-5-5-2-2-2-2-7-7-7-7-7-7-7-7-|
E|-3-3-3-3-2-2-2-2-7-7-7-7-7-7-7-7-|

Andy

e|---------------------------15-12---12b-----|
B|----------------------12-15-----13b----15b-|
G|--------------------13---------------------|
D|------------------12-----------------------|
A|-------------------------------------------|
E|-------------------------------------------|

Damian: "but don't think that it bothers me at all"
      G       B       E         G
e|-3-3-3-3-2-2-2-2-7-7-7-7-10-10-10-10-|
B|-3-3-3-3-2-2-2-2-7-7-7-7-10-10-10-10-|
G|-4-4-4-4-4-4-4-4-9-9-9-9-12-12-12-12-|
D|-5-5-5-5-4-4-4-4-9-9-9-9-12-12-12-12-|
A|-5-5-5-5-2-2-2-2-7-7-7-7-10-10-10-10-|
E|-3-3-3-3-2-2-2-2-7-7-7-7-10-10-10-10-|

Andy

e|--------------------------------15b-|
B|--------------------------12-15-----|
G|------------------------13----------|
D|----------------------12------------|
A|------------------------------------|
E|------------------------------------|

Damian: "You're a bad-hearted boy-trap, babydoll, but you're..."
          C               G
e|-3-3-3-3-3-3-3-3-3-3-3-3-3-3-3-3-|
B|-3-3-3-3-3-3-3-3-3-3-3-3-3-3-3-3-|
G|-5-5-5-5-5-5-5-5-4-4-4-4-4-4-4-4-|
D|-5-5-5-5-5-5-5-5-5-5-5-5-5-5-5-5-|
A|-3-3-3-3-3-3-3-3-5-5-5-5-5-5-5-5-|
E|-3-3-3-3-3-3-3-3-3-3-3-3-3-3-3-3-|

Andy:

e|-15b15b15b15b15b15b15b15b-|
B|--------------------------|
G|--------------------------|
D|--------------------------|
A|--------------------------|
E|--------------------------|

Chorus:

Damian: "You're so damn hot"
    B    A          G          C    D          G
e|-2-2--5-5--3-3-3-3-3-3-3-3--3-3--5-5--3-3-3-3-3-3-3-3-|
B|-2-2--5-5--3-3-3-3-3-3-3-3--3-3--5-5--3-3-3-3-3-3-3-3-|
G|-4-4--6-6--4-4-4-4-4-4-4-4--5-5--7-7--4-4-4-4-4-4-4-4-|
D|-4-4--7-7--5-5-5-5-5-5-5-5--5-5--7-7--5-5-5-5-5-5-5-5-|3x
A|-2-2--7-7--5-5-5-5-5-5-5-5--3-3--5-5--5-5-5-5-5-5-5-5-|
E|-2-2--5-5--3-3-3-3-3-3-3-3--3-3--5-5--3-3-3-3-3-3-3-3-|

Andy:
    B    A      G              C    D      G
e|-7-7--5-5--3-3-3-3------0---3-3--5-5--3-3-3-3------0----|
B|-7-7--5-5--3-3-3-3--11b-5---3-3--5-5--3-3-3-3--11b-5-8b-|
G|-8-8--6-6--4-4-4-4----------5-5--7-7--4-4-4-4-----------|
D|-9-9--7-7--5-5-5-5----------5-5--7-7--5-5-5-5-----------|3x
A|-9-9--7-7--5-5-5-5----------3-3--5-5--5-5-5-5-----------|
E|-7-7--5-5--3-3-3-3----------3-3--5-5--3-3-3-3-----------|


Verse:
Damian
    G               C           D
e|-3-3-------------3-3----------5-|
B|-3-3-------------3-3----------5-|
G|-4-4-------------5-5----------7-|
D|-5-5-------------5-5----------7-|3x
A|-5-5-------------3-3----------5-|
E|-3-3-------------3-3----------5-|
Andy

e|---------------------------------|
B|---------------------------------|
G|---------------------------------|
D|-----------------5-----------5/7-|3x
A|-5---------------3-3-3-3-3-3-3/5-|
E|-3-3-3-3-3-3-3-3-----------------|

Pre Chorus:

Damian: "You don't love me at all"
      G       B           E
e|-3-3-3-3-2-2-2-2-7-7-7-7-7-7-7-7-|
B|-3-3-3-3-2-2-2-2-7-7-7-7-7-7-7-7-|
G|-4-4-4-4-4-4-4-4-9-9-9-9-9-9-9-9-|
D|-5-5-5-5-4-4-4-4-9-9-9-9-9-9-9-9-|
A|-5-5-5-5-2-2-2-2-7-7-7-7-7-7-7-7-|
E|-3-3-3-3-2-2-2-2-7-7-7-7-7-7-7-7-|

Andy

e|---------------------------15-12---12b-----|
B|----------------------12-15-----13b----15b-|
G|--------------------13---------------------|
D|------------------12-----------------------|
A|-------------------------------------------|
E|-------------------------------------------|

Damian: "but don't think that it bothers me at all"
      G       B       E         G
e|-3-3-3-3-2-2-2-2-7-7-7-7-10-10-10-10-|
B|-3-3-3-3-2-2-2-2-7-7-7-7-10-10-10-10-|
G|-4-4-4-4-4-4-4-4-9-9-9-9-12-12-12-12-|
D|-5-5-5-5-4-4-4-4-9-9-9-9-12-12-12-12-|
A|-5-5-5-5-2-2-2-2-7-7-7-7-10-10-10-10-|
E|-3-3-3-3-2-2-2-2-7-7-7-7-10-10-10-10-|

Andy

e|--------------------------------15b-|
B|--------------------------12-15-----|
G|------------------------13----------|
D|----------------------12------------|
A|------------------------------------|
E|------------------------------------|

Damian: "You're a bad-hearted boy-trap, babydoll, but you're..."
          C               G
e|-3-3-3-3-3-3-3-3-3-3-3-3-3-3-3-3-|
B|-3-3-3-3-3-3-3-3-3-3-3-3-3-3-3-3-|
G|-5-5-5-5-5-5-5-5-4-4-4-4-4-4-4-4-|
D|-5-5-5-5-5-5-5-5-5-5-5-5-5-5-5-5-|
A|-3-3-3-3-3-3-3-3-5-5-5-5-5-5-5-5-|
E|-3-3-3-3-3-3-3-3-3-3-3-3-3-3-3-3-|

Andy:

e|-15b15b15b15b15b15b15b15b-|
B|--------------------------|
G|--------------------------|
D|--------------------------|
A|--------------------------|
E|--------------------------|

Chorus:

Damian: "You're so damn hot"
    B    A          G          C    D          G
e|-2-2--5-5--3-3-3-3-3-3-3-3--3-3--5-5--3-3-3-3-3-3-3-3-|
B|-2-2--5-5--3-3-3-3-3-3-3-3--3-3--5-5--3-3-3-3-3-3-3-3-|
G|-4-4--6-6--4-4-4-4-4-4-4-4--5-5--7-7--4-4-4-4-4-4-4-4-|
D|-4-4--7-7--5-5-5-5-5-5-5-5--5-5--7-7--5-5-5-5-5-5-5-5-|3x
A|-2-2--7-7--5-5-5-5-5-5-5-5--3-3--5-5--5-5-5-5-5-5-5-5-|
E|-2-2--5-5--3-3-3-3-3-3-3-3--3-3--5-5--3-3-3-3-3-3-3-3-|

Andy:
    B    A      G              C    D      G
e|-7-7--5-5--3-3-3-3------0---3-3--5-5--3-3-3-3------0----|
B|-7-7--5-5--3-3-3-3--11b-5---3-3--5-5--3-3-3-3--11b-5-8b-|
G|-8-8--6-6--4-4-4-4----------5-5--7-7--4-4-4-4-----------|
D|-9-9--7-7--5-5-5-5----------5-5--7-7--5-5-5-5-----------|3x
A|-9-9--7-7--5-5-5-5----------3-3--5-5--5-5-5-5-----------|
E|-7-7--5-5--3-3-3-3----------3-3--5-5--3-3-3-3-----------|

Solo:

Damian:
           G           C       D
e|-3-3-3-3-3-3-3-3-3-3-3-3-3-5-5-5-|
B|-3-3-3-3-3-3-3-3-3-3-3-3-3-5-5-5-|
G|-4-4-4-4-4-4-4-4-5-5-5-5-5-7-7-7-|
D|-5-5-5-5-5-5-5-5-5-5-5-5-5-7-7-7-|
A|-5-5-5-5-5-5-5-5-3-3-3-3-3-5-5-5-|
E|-3-3-3-3-3-3-3-3-3-3-3-3-3-5-5-5-|

Andy:

e|-12p10-------------------------------------------------------|
B|-------12p10-----10-12-10------10-12-10--------10-12-10------|
G|-------------12-----------12-----------1212-------------12---|
D|---------------14-----------14--------------14------------14-|
A|-------------------------------------------------------------|
E|-------------------------------------------------------------|

e|-12p10------------------------------------------------12p10---------------|
B|-------12p10-----10-12-10------10-12-10------10-12p10------12p10-10-1210--|
G|------------12-----------12------------1212-----------------------------12|
D|---------------14-----------14--------------------------------------------|
A|--------------------------------------------------------------------------|
E|--------------------------------------------------------------------------|

Bridge:

Damian not play: "So who's this other guy you've got?"

Andy:


e|---------------------------|
B|---------------------------|
G|---10--12-10---------------|
D|------------9---8--10-8----|3x
A|-10--10-------10-10----10--|
E|---------------------------|

Damian: "No more, for sure." What'd I
believe you for?"

Andy:
          G            C       D
e|-3-3-3-3-3-3-3-3-3-3-3-3-3-5-5-5-|
B|-3-3-3-3-3-3-3-3-3-3-3-3-3-5-5-5-|
G|-4-4-4-4-4-4-4-4-5-5-5-5-5-7-7-7-|
D|-5-5-5-5-5-5-5-5-5-5-5-5-5-7-7-7-|
A|-5-5-5-5-5-5-5-5-3-3-3-3-3-5-5-5-|
E|-3-3-3-3-3-3-3-3-3-3-3-3-3-5-5-5-|

Pre Chorus:

Damian: "You don't love me at all"
      G       B           E
e|-3-3-3-3-2-2-2-2-7-7-7-7-7-7-7-7-|
B|-3-3-3-3-2-2-2-2-7-7-7-7-7-7-7-7-|
G|-4-4-4-4-4-4-4-4-9-9-9-9-9-9-9-9-|
D|-5-5-5-5-4-4-4-4-9-9-9-9-9-9-9-9-|
A|-5-5-5-5-2-2-2-2-7-7-7-7-7-7-7-7-|
E|-3-3-3-3-2-2-2-2-7-7-7-7-7-7-7-7-|

Andy

e|---------------------------15-12---12b-----|
B|----------------------12-15-----13b----15b-|
G|--------------------13---------------------|
D|------------------12-----------------------|
A|-------------------------------------------|
E|-------------------------------------------|

Damian: "but don't think that it bothers me at all"
      G       B       E         G
e|-3-3-3-3-2-2-2-2-7-7-7-7-10-10-10-10-|
B|-3-3-3-3-2-2-2-2-7-7-7-7-10-10-10-10-|
G|-4-4-4-4-4-4-4-4-9-9-9-9-12-12-12-12-|
D|-5-5-5-5-4-4-4-4-9-9-9-9-12-12-12-12-|
A|-5-5-5-5-2-2-2-2-7-7-7-7-10-10-10-10-|
E|-3-3-3-3-2-2-2-2-7-7-7-7-10-10-10-10-|

Andy

e|--------------------------------15b-|
B|--------------------------12-15-----|
G|------------------------13----------|
D|----------------------12------------|
A|------------------------------------|
E|------------------------------------|

Damian: "You're a bad-hearted boy-trap, babydoll, but you're..."
          C               G
e|-3-3-3-3-3-3-3-3-3-3-3-3-3-3-3-3-|
B|-3-3-3-3-3-3-3-3-3-3-3-3-3-3-3-3-|
G|-5-5-5-5-5-5-5-5-4-4-4-4-4-4-4-4-|
D|-5-5-5-5-5-5-5-5-5-5-5-5-5-5-5-5-|
A|-3-3-3-3-3-3-3-3-5-5-5-5-5-5-5-5-|
E|-3-3-3-3-3-3-3-3-3-3-3-3-3-3-3-3-|

Andy:

e|-15b15b15b15b15b15b15b15b-|
B|--------------------------|
G|--------------------------|
D|--------------------------|
A|--------------------------|
E|--------------------------|

Chorus:

Damian: "You're so damn hot"
    B    A          G          C    D          G
e|-2-2--5-5--3-3-3-3-3-3-3-3--3-3--5-5--3-3-3-3-3-3-3-3-|
B|-2-2--5-5--3-3-3-3-3-3-3-3--3-3--5-5--3-3-3-3-3-3-3-3-|
G|-4-4--6-6--4-4-4-4-4-4-4-4--5-5--7-7--4-4-4-4-4-4-4-4-|
D|-4-4--7-7--5-5-5-5-5-5-5-5--5-5--7-7--5-5-5-5-5-5-5-5-|3x
A|-2-2--7-7--5-5-5-5-5-5-5-5--3-3--5-5--5-5-5-5-5-5-5-5-|
E|-2-2--5-5--3-3-3-3-3-3-3-3--3-3--5-5--3-3-3-3-3-3-3-3-|

Andy:
    B    A      G              C    D      G
e|-7-7--5-5--3-3-3-3------0---3-3--5-5--3-3-3-3------0----|
B|-7-7--5-5--3-3-3-3--11b-5---3-3--5-5--3-3-3-3--11b-5-8b-|
G|-8-8--6-6--4-4-4-4----------5-5--7-7--4-4-4-4-----------|
D|-9-9--7-7--5-5-5-5----------5-5--7-7--5-5-5-5-----------|3x
A|-9-9--7-7--5-5-5-5----------3-3--5-5--5-5-5-5-----------|
E|-7-7--5-5--3-3-3-3----------3-3--5-5--3-3-3-3-----------|

Thank to read. Vote e Coment.
Tap to rate this tab
 
# A B C D E F G H I J K L M N O P Q R S T U V W X Y Z