Song name
# A B C D E F G H I J K L M N O P Q R S T U V W X Y Z

Ok Go - A Million Ways tab

Band: Ok Go
Album: Oh no (2005)
Song: A million ways

Tabbed by Samoth

Standard tuning




Intro
-----

|Guitar 1
|
|------------------------------------------|
|------------------------------------------|
|------------------------------------------|
|------------------------------------------|
|------------------------------------------|
|------------------------------------------|
|
|Guitar 2
|
|-12-12----12-12----12-12-12-12----x-12-12-|
|-12-12----12-12----12-12-12-12----x-12-12-|
|-12-12----12-12----12-12-12-12----x-12-12-|
|------------------------------------------|
|------------------------------------------|
|------------------------------------------|


|Guitar 1
|
|-----7------7--7--------|-----------------------------|
|-----------------10-8\1-|-----10------10--10-8--------|
|-7-9----7-9-------------|-7-9-----7-9-----------9-7-9-|
|------------------------|-----------------------------| x2
|------------------------|-----------------------------|
|------------------------|-----------------------------|
|
|Guitar 2
|
|-12-12----12-12----12-12-12-12----x-12-12-|-12-12----12-12----12-12-12-12----x-12-12-|
|-12-12----12-12----12-12-12-12----x-12-12-|-12-12----12-12----12-12-12-12----x-12-12-|
|-12-12----12-12----12-12-12-12----x-12-12-|-12-12----12-12----12-12-12-12----x-12-12-| x2
|------------------------------------------|------------------------------------------|
|------------------------------------------|------------------------------------------|
|------------------------------------------|------------------------------------------|



Riff 1
------

|-0----0----0----0-|-0----0----0---0-|
|-0----0----0----0-|-1----1----1---1-|
|-0----0----0----0-|-2----2----2---2-| x2
|-2----2----2----2-|-2----2----2---2-|
|-2----2----2----2-|-0----0----0---0-|
|-0----0----0----0-|-----------------|



Riff 1 bis
----------

|-0-0-0-0-0---x-0-0---0-0-0-0-0---x-0-0-|-0-0-0-0-0---x-0-0---0-0-0-0-0---x-0-2-|
|-0-0-0-0-0---x-0-0---0-0-0-0-0---x-0-0-|-1-1-1-1-1---x-1-1---1-1-1-1-1---x-1-1-|
|-0-0-0-0-0---x-0-0---0-0-0-0-0---x-0-0-|-2-2-2-2-2---x-2-2---2-2-2-2-2---x-2-2-| x2
|-2-2-2-2-2---x-2-2---2-2-2-2-2---x-2-2-|-2-2-2-2-2---x-2-2---2-2-2-2-2---x-2-2-|
|-2-2-2-2-2---x-2-2---2-2-2-2-2---x-2-2-|-0-0-0-0-0---x-0-0---0-0-0-0-0---x-0-0-|
|-0-0-0-0-0---x-0-0---0-0-0-0-0---x-0-0-|---------------------------------------|



Riff 2
------

|Guitar 1
|
|----|----|----|----|---------------|---------------|
|----|----|----|----|---------------|---8-7---------|
|----|----|----|----|-7-8-9---7-8-9-|-7-------7-8-9-|
|----|----|----|----|---------------|---------------|
|----|----|----|----|---------------|---------------|
|----|----|----|----|---------------|---------------|
|
|Guitar 2
|
|-3:-|-2:-|-0:-|-0:-|-3:------------|-0:------------|
|-0:-|-4:-|-0:-|-1:-|-0:------------|-1:------------|
|-0:-|-4:-|-0:-|-0:-|-0:------------|-0:------------|
|-0:-|-4:-|-2:-|-2:-|-0:------------|-2:------------|
|-2:-|-2:-|-2:-|-3:-|-2:------------|-3:------------|
|-3:-|----|-0:-|-0:-|-3:------------|-0:------------|



Riff 2 bis
----------

|Guitar 1
|----|----|----|----|---------------|---------------|---------------|---------------|
|----|----|----|----|---------------|---8-7---------|---------------|---8-7---------|
|----|----|----|----|-7-8-9---7-8-9-|-7-------7-8-9-|-7-8-9---7-8-9-|-7-------7-8-9-|
|----|----|----|----|---------------|---------------|---------------|---------------|
|----|----|----|----|---------------|---------------|---------------|---------------|
|----|----|----|----|---------------|---------------|---------------|---------------|
|
|Guitar 2
|
|-3:-|-2:-|-0:-|-0:-|-3:------------|-0:------------|-3:------------|-0:------------|
|-0:-|-4:-|-0:-|-1:-|-0:------------|-1:------------|-0:------------|-1:------------|
|-0:-|-4:-|-0:-|-0:-|-0:------------|-0:------------|-0:------------|-0:------------|
|-0:-|-4:-|-2:-|-2:-|-0:------------|-2:------------|-0:------------|-2:------------|
|-2:-|-2:-|-2:-|-3:-|-2:------------|-3:------------|-2:------------|-3:------------|
|-3:-|----|-0:-|-0:-|-3:------------|-0:------------|-3:------------|-0:------------|



Riff 3
------

|Guitar 1
|
|-----7------7--7--------|-----------------------------|
|-----------------10-8\1-|-----10------10--10-8--------|
|-7-9----7-9-------------|-7-9-----7-9-----------9-7-9-|
|------------------------|-----------------------------|
|------------------------|-----------------------------|
|------------------------|-----------------------------|
|
|Guitar 2
|
|-0------0------0------0-|-0------0------0-----0-|
|-0------0------0------0-|-1------1------1-----1-|
|-0------0------0------0-|-2------2------2-----2-|
|-2------2------2------2-|-2------2------2-----2-|
|-2------2------2------2-|-0------0------0-----0-|
|-0------0------0------0-|-----------------------|



Riff 3 bis
----------

|Guitar 1
|
|-----7------7--7--------|-----------------------------|
|-----------------10-8\1-|-----10------10--10-8--------|
|-7-9----7-9-------------|-7-9-----7-9-----------9-7-9-|
|------------------------|-----------------------------| x 2
|------------------------|-----------------------------|
|------------------------|-----------------------------|
|
|Guitar 2
|
|-0-0-0-0-0---x-0-0---0-0-0-0-0---x-0-0-|-0-0-0-0-0---x-0-0---0-0-0-0-0---x-0-2-|
|-0-0-0-0-0---x-0-0---0-0-0-0-0---x-0-0-|-1-1-1-1-1---x-1-1---1-1-1-1-1---x-1-1-|
|-0-0-0-0-0---x-0-0---0-0-0-0-0---x-0-0-|-2-2-2-2-2---x-2-2---2-2-2-2-2---x-2-2-|
|-2-2-2-2-2---x-2-2---2-2-2-2-2---x-2-2-|-2-2-2-2-2---x-2-2---2-2-2-2-2---x-2-2-| x 2
|-2-2-2-2-2---x-2-2---2-2-2-2-2---x-2-2-|-0-0-0-0-0---x-0-0---0-0-0-0-0---x-0-0-|
|-0-0-0-0-0---x-0-0---0-0-0-0-0---x-0-0-|---------------------------------------|



Bridge
------

|-0:-|-2:-|
|-0:-|-4:-|
|-0:-|-4:-|
|-2:-|-4:-| x 4
|-2:-|-2:-|
|-0:-|----|



Riff 4
------

|Guitar 1
|
|-----7-----------------------|-----------------------|
|--------10b-10b-10b-10b-10fb-|-----9b-9b-9b-9b-9fb+r-|
|-7-9-------------------------|-7-9-------------------|
|-----------------------------|-----------------------|
|-----------------------------|-----------------------|
|-----------------------------|-----------------------|
|
|Guitar 2
|
|-0-0-0-0-0---x-0-0---0-0-0-0-0---x-0-0-|-0-0-0-0-0---x-0-0---0-0-0-0-0---x-0-2-|
|-0-0-0-0-0---x-0-0---0-0-0-0-0---x-0-0-|-1-1-1-1-1---x-1-1---1-1-1-1-1---x-1-1-|
|-0-0-0-0-0---x-0-0---0-0-0-0-0---x-0-0-|-2-2-2-2-2---x-2-2---2-2-2-2-2---x-2-2-|
|-2-2-2-2-2---x-2-2---2-2-2-2-2---x-2-2-|-2-2-2-2-2---x-2-2---2-2-2-2-2---x-2-2-|
|-2-2-2-2-2---x-2-2---2-2-2-2-2---x-2-2-|-0-0-0-0-0---x-0-0---0-0-0-0-0---x-0-0-|
|-0-0-0-0-0---x-0-0---0-0-0-0-0---x-0-0-|---------------------------------------|


|Guitar 1
|
|------9b-9b-9b--------|-----12b-12b-12b-12b-14fb-|
|---------------10fb+r-|--------------------------|
|-7-9------------------|-7-9----------------------|
|----------------------|--------------------------|
|----------------------|--------------------------|
|----------------------|--------------------------|
|
|Guitar 2
|
|-0-0-0-0-0---x-0-0---0-0-0-0-0---x-0-0-|-0-0-0-0-0---x-0-0---0-0-0-0-0---x-0-2-|
|-0-0-0-0-0---x-0-0---0-0-0-0-0---x-0-0-|-1-1-1-1-1---x-1-1---1-1-1-1-1---x-1-1-|
|-0-0-0-0-0---x-0-0---0-0-0-0-0---x-0-0-|-2-2-2-2-2---x-2-2---2-2-2-2-2---x-2-2-|
|-2-2-2-2-2---x-2-2---2-2-2-2-2---x-2-2-|-2-2-2-2-2---x-2-2---2-2-2-2-2---x-2-2-|
|-2-2-2-2-2---x-2-2---2-2-2-2-2---x-2-2-|-0-0-0-0-0---x-0-0---0-0-0-0-0---x-0-0-|
|-0-0-0-0-0---x-0-0---0-0-0-0-0---x-0-0-|---------------------------------------|



Outro
-----

|Guitar 1
|
|-------|
|-------|
|-7-8-9-| x3
|-------|
|-------|
|-------|
|
|Guitar2
|
|-0-0-0-0-0--x-0-0-|-0-0-0-0-0--x-0-0-|-0-|
|-0-0-0-0-0--x-0-0-|-1-1-1-1-1--x-1-1-|-0-|
|-0-0-0-0-0--x-0-0-|-2-2-2-2-2--x-2-2-|-0-|
|-2-2-2-2-2--x-2-2-|-2-2-2-2-2--x-2-2-|-2-|
|-2-2-2-2-2--x-2-2-|-0-0-0-0-0--x-0-0-|-2-|
|-0-0-0-0-0--x-0-0-|-0-0-0-0-0--x-0-0-|-0-|



Song structure
--------------

Intro
Riff 1
Riff 2
Riff 1 bis
Riff 3
Riff 1
Riff 2 bis
Riff 1 bis
Bridge
Riff 1 bis
Riff 3 bis
Riff 4
Outro



Lyrics
------

sit back, matter of fact   
teasing, toying, turning, chatting,
charming, hissing, playin the crowd

play that song again
another couple Klonopin
a nod, a glance, a half-hearted bow


oh such grace
oh such beauty
and lipstick and callous
and fishnets and malice
oh darlin'
you're a million ways to be cruel
(one zero zero zero zero zero zero cruel)
you're a million ways to be cruel
(one zero zero zero zero zero zero cruel)
you're a million ways to be cruel

i should, i wish i could,
maybe if you were i would
a list of standard issue regrets
one last eighty proof,
slouchin' in the corner booth
baby, it's as good as it gets

oh such grace
oh such beauty
so precious, suspicious, and charming and vicious
oh darlin'
you're a million ways

oh darlin'
you're a million ways to be cruel
(one zero zero zero zero zero zero cruel)
you're a million ways to be cruel
(one zero zero zero zero zero zero cruel)
Am
you're a million ways to be cruel

oh darlin'
oh darlin'
you're a million ways
oh darlin'
oh darlin'
you're a million ways
oh, darlin'
oh darlin'
you're a million ways to be
oh oh oh oh

(one zero zero zero zero zero zero cruel)
you're a million ways to be cruel
you're a million ways to be cruel
(one zero zero zero zero zero zero cruel)
you're a million ways to be cruel
you're a million ways to be cruel
(one zero zero zero zero zero zero cruel)
you're a million ways to be cruel
(one zero zero zero zero zero zero cruel)
you're a million ways to be cruel
(one zero zero zero zero zero zero cruel)

oh darlin
you're a million ways to be cruel.
Tap to rate this tab
# A B C D E F G H I J K L M N O P Q R S T U V W X Y Z