Song name
# A B C D E F G H I J K L M N O P Q R S T U V W X Y Z

Ok Go - Wtf tab

B=bend
b=slight bend
h=hammer on
p=pull off
t=tap
m=harmonic
/=slide up
\=slide down
~=light vibrato
~~=vibrato
x=mute string
tr=trill between two given notes.

Tuning: Standard (eBGDAE)

I should probably include the bass riff in the intro:

G|-------------------|  G|----------------------------------------|
D|-------------------|  D|----------------------------------------|
A|-8B---8B-8B---8B-8B|  A|---------3---------3---------3---------x|
E|----0-------0------|  E|-5-5-5-5---5-5-3-5---5-5-5-5---5-5-3-5--|

Guitar in verse:

e|---------------------------------------------|
B|-7/10~-9~-8~-7~-2~-7~-5~-7/10~-9~-8~-7~-6~-5~|
G|---------------------------------------------|
D|---------------------------------------------|
A|---------------------------------------------|
E|---------------------------------------------|

Chorus:

e|-12-x-12-x-12-12-12-x-12-x-12-12-x-12-x-12-12-12-12-x-12-x-12|
B|-9--x-9--x-9--9--9--x-9--x-9--7--x-7--x-7--7--7--7--x-7--x-7-|
G|-9--x-9--x-9--9--9--x-9--x-9--7--x-7--x-7--7--7--7--x-7--x-7-|
D|-------------------------------------------------------------|
A|-------------------------------------------------------------|
E|-------------------------------------------------------------|

Play 2x.

Mini-solo:

e|----------12-12-12----------12|
B|-14-14-14-12-12-12-14-14-14-12|
G|-12-12-12-12-12-12-12-12-12-12|
D|------------------------------|
A|------------------------------|
E|------------------------------|

Play 2x, then:

e|-15-14-12-12-17-16-14-14\x|
B|-12-12-12-12-14-14-14-14\x|
G|-12-12-12-12-14-14-14-14\x|
D|--------------------------|
A|--------------------------|
E|--------------------------|

Play 2x.

Play verse riff 2x again, then:
Prechorus riff:

e|-5-----5-----5-----5-----5-----5-----5-----5|
B|-3-----3-----3-----3-----5-----5-----5-----5|
G|--------------------------------------------|
D|--------------------------------------------|
A|--------------------------------------------|
E|--------------------------------------------|

Then play the chorus again.

Solo:

Sounds like he has a whammy pedal or some other sort of octaver there.
(played really fast)

e|-10b---8-10-10b-8-8-8-8-10b-10-8---10-10b-10-8---10-10b-10-8---10-10b-10-8--|
B|-----8---------------------------8-------------8-------------8-------------8|
G|----------------------------------------------------------------------------|
D|----------------------------------------------------------------------------|
A|----------------------------------------------------------------------------|
E|----------------------------------------------------------------------------|

e|8-10-8---8-10-8---8-10-8---8-10-8---8-10-8--------12/15B-15-15-15-15-15~~|
B|-------8--------8--------8--------8-------------13-----------------------|
G|-------------------------------------------9/12--------------------------|
D|-------------------------------------------------------------------------|
A|-------------------------------------------------------------------------|
E|-------------------------------------------------------------------------|

e|-------|
B|-13tr15|
G|-------|
D|-------|
A|-------|
E|-------|

Trill for two measures, then:

e|--------------|
B|--------------|
G|-(12)p9p7h9t12|
D|--------------|
A|--------------|
E|--------------|

Tap those notes for about a measure and a half, then:

e|----------------8-8----8-------------8-8-----8-----7---7---7-7----7\5p0|
B|7-7-7m-6-6-8-11-8-8-11---8-8-8-8-8-8---8-----8------7---7---7-7--------|
G|-----------------------------------------10B---10B---9B--9B----9B------|
D|-----------------------------------------------------------------------|
A|-----------------------------------------------------------------------|
E|-----------------------------------------------------------------------|

Then play intro bass riff x2, then verse riff x2 and bass riff x2 together. 
After that, play the prechorus riff followed by the chorus x4.
Tap to rate this tab
 
# A B C D E F G H I J K L M N O P Q R S T U V W X Y Z