Song name
# A B C D E F G H I J K L M N O P Q R S T U V W X Y Z

Ok Go - Let Is Rain tab

Intro Chords:
       C           Am            E        F
e----------------------------------------------|
B------5-----5-------1-1-------0-0-------1-1---|
G---5--5-5-5-5-5-2-2-2-2-2-----1-1-------2-2---|
D---5--5-5-5-5-5-2-2-2-2-2-2-2-2-2-2-3-3-3-3-3-|
A---3----3-3---3-0-0-----0-2-2-2-2-2-3-3-3-3-3-|
E--------------------------0-0-----0-1-1-----1-|

If that's too confusing just play the first 2 strokes on the bottom part of the chord 
the last ones on the upper part of the chord.

Main Riff
e----------------------------------------------------|
B----------------------------------------------------|
G--5-5-4-4-----4-4-2-2-----2-2-0-0-------------------|
D----------2-2---------2-2---------2-2-0-0-0h2-------|
A----------------------------------------------3-----|(0)
E----------------------------------------------------|
                                     (0)-only played first time through.
At one point another guitar play same riff just octave up.

Verse:

C  Am  E  F  - play like intro

Chorus:
Let it Rain, Let it Pour-

C Am E F

Stroke down chords slowly , listen to the song you'll understand.

Interlude:
Hallelujah Part-

C  Am  E  F

Just play them straight.


-Rob
If there are any problems or question email me at TakeAwaysMusic@yahoo.com
Tap to rate this tab
# A B C D E F G H I J K L M N O P Q R S T U V W X Y Z