Song name
# A B C D E F G H I J K L M N O P Q R S T U V W X Y Z

Ok Go - Oh Lately Its So Quiet tab

-------------------------------------------------------------------------------
	         OH LATELY IT'S SO QUIET(acoustic) - Ok Go
-------------------------------------------------------------------------------
Tabbed by:azimuth457
Email:azimuth457@gmail.com

Tuning: Standard (EADGBe)

video for this on youtube at: http://www.youtube.com/watch?v=tQZBhI8CNtw

I'm a little uncertain about the second guitar during the chorus,
so i didn't put it in
but i know he plays chords like D but higher
sort of like in the solo. 
so you can email me any corrections
for that or any other part.

Intro, Guitar 1:
e|-----------------------|
B|-----------------------|
G|-----------------------|
D|--9-9-9-9-9-9-9-9-9----|
A|--6-6-6-6-6-6-6-6/7----|
E|-----------------------|

Verse, Guitar 1:
e|------------------------------------------------|
B|------------------------------------------------|
G|------------------------------------------------|
D|--9-9-9-99--9-9-9-99---9--9--9--9-9--7-7-7-77---|
A|--7-7-7-77--6-6-6-66--11-11-11-1111--9-9-9-99---|
E|------------------------------------------------|
                        

Verse, Guitar 2:
e|--0-0-0-00--4-4-4-44------------2-2-2-22---|
B|--0-0-0-00--4-4-4-44--5-5-5-55--2-2-2-22---|
G|--1-1-1-11--4-4-4-44--6-6-6-66--2-2-2-22---|
D|--2-2-2-22--6-6-6-66--6-6-6-66--4-4-4-44---|
A|--2-2-2-22--6-6-6-66--4-4-4-44--4-4-4-44---|
E|--0-0-0-00--4-4-4-44------------2-2-2-22---|
          

Chorus, Guitar 1:
e|-----------------------0-0-0-00--0-0-0-00---|
B|---2-2-2-22--4-4-4-44--0-0-0-00--1-1-1-11---|
G|---2-2-2-22--4-4-4-44--1-1-1-11--0-0-0-00---|
D|---2-2-2-22--4-4-4-44--2-2-2-22--2-2-2-22---|
A|---0-0-0-00--2-2-2-22--2-2-2-22--3-3-3-33---|
E|-----------------------0-0-0-00-------------|

Post Chorus, Both Guitars:
e|-------3----------------|
B|-------3----------------|
G|-------4----------------|
D|---5-5-5----7---9-------|
A|---5-5-5----7---9-------|
E|---3-3-3--555-777-------|


Solo, Guitar 1:
e|-------------4-4-4-44------------2-2-2-22---|
B|---9-9-9-99--4-4-4-44--5-5-5-55--2-2-2-22---|
G|---9-9-9-99--4-4-4-44--6-6-6-66--2-2-2-22---|
D|---9-9-9-99--6-6-6-66--6-6-6-66--4-4-4-44---|
A|---7-7-7-77--6-6-6-66--4-4-4-44--4-4-4-44---|
E|-------------4-4-4-44------------2-2-2-22---|

Solo, Guitar 2:
e|------7------9---7----7--------4--4--2---0--0---5--5------7---7------------|
B|------9------9---9----9----------------------------------------------------|
G|--/9-----/11---9---99---9\--/4--4--44--44--4--/6--6--66-/8--8---88---------|
D|---------------------------------------------------------------------------|
A|---------------------------------------------------------------------------|
E|---------------------------------------------------------------------------|

Outro, Guitar 1:
e|-----------------------0~--------------------------------------------------||
B|-----------------------0~--------------------------------------------------||
G|-----------------------1~--------------------------------------------------||
D|---9-9-9-99-9-9-9-99---2~--------------------------------------------------||
A|---7-7-7-77-7-7-7-77---2~--------------------------------------------------||
E|-----------------------0~--------------------------------------------------||

Outro, Guitar 2:
e|---------------------------------------------------------------------------||
B|-----------------------9~--------------------------------------------------||
G|-----------------------9~--------------------------------------------------||
D|-----------------------9~--------------------------------------------------||
A|-----------------------7~--------------------------------------------------||
E|---------------------------------------------------------------------------||


| /  slide up
| \  slide down
| h  hammer-on
| p  pull-off
| ~  vibrato
| +  harmonic
| x  Mute note
===============================================================================
Tap to rate this tab
 
# A B C D E F G H I J K L M N O P Q R S T U V W X Y Z