Song name
# A B C D E F G H I J K L M N O P Q R S T U V W X Y Z

Ok Go - A Million Ways tab

A Million Ways
Ok Go
standard tuning
^ = bend
r = return bend


Intro/Chorus (with reverb effect in the intro)
E|-12---------------------------------------------------|
A|-12---------------------------------------------------|
D|-12---------------------------------------------------|   repeat however many times
G|------------------------------------------------------|              necessary
B|------------------------------------------------------|
e|------------------------------------------------------|

2nd part of Intro/ post Chorus
E|----------------------------------------|
A|----------------------------------------|
D|----------------------------------------|
G|-7-9-------7-9-------------8----8-------|
B|-----10^11-----10^11-11r10---10---------|
e|----------------------------------------|

E|---------------------------------------|
A|---------------------------------------|
D|---------------------------------------|
G|-7-9-----7-9---------9-7-9-------------|
B|-----8^9-----8^9-9r8-------------------|
e|---------------------------------------|

Final part at the end with the bends and stuff

repeat intro/post-chorus part
then
E|---------------------------------------|
A|---------------------------------------|
D|---------------------------------------|
G|-7-9-----------------------------------|
B|-----10^11-10^11-10^11-10^11-10--------|
e|---------------------------------------|

E|---------------------------------------|
A|---------------------------------------|
D|---------------------------------------|
G|-7-9-----------------------------------|
B|-----8^9-8^9-8^9-8^9-8-----------------|
e|---------------------------------------|

E|---------------------------------------|
A|---------------------------------------|
D|---------------------------------------|
G|-7-9-----------------------------------|
B|-----13^14-13^14-13^14-10^11-----------|
e|---------------------------------------|

E|---------------------------------------|
A|---------------------------------------|
D|---------------------------------------|
G|-7-9-----------------------------------|
B|-----11^12-11^12-13^14-----------------|
e|---------------------------------------|
Tap to rate this tab
 
# A B C D E F G H I J K L M N O P Q R S T U V W X Y Z