Song name
# A B C D E F G H I J K L M N O P Q R S T U V W X Y Z

Ok Go - Television Television tab

Title	: Television Television
Artist	: OK Go
Album	: Oh No (2005)
Tuning	: Drop D (D,A,D,G,B,E)
Tabbed by : Atsuzen
E-mail	: twentythreesums@hotmail.com


Intro/ Verse

|--------------------------------------------------------------|
|--------------------------------------------------------------|
|--------------------------------------------------------------|
|--------------------------------------------------------------|
|--------------------------------------------------------------|
|-0-0---0-4-4---4-5-5---5-4-4---4-5-5---5-6-6---6-7--7-7--2b3--|


Pre-chorus

Guitar I

|--------------------------------------------------------------|
|-------------/10---------------------------------/10----------|
|------------------7--7-7-7--7--/11--------------------10~--9~-|
|-9--9-9-9--9------------------------9--9-9-9--9---------------|
|--------------------------------------------------------------|
|--------------------------------------------------------------|
     .                .                 .

Guitar II

|-2----5----2----8-----7----|
|-3----7----3----10----9----|
|-4----7----4----10----9----|
|-4----7----4----10----9----|
|-2----5----2----8-----7----|
|---------------------------|


Chorus

Guitar I

|-----------------------------------------------------------|
|---10-10-10-13b15r13-------10-10-10-13b15r13-------10------|
|---------------------10~\--------------------10-12----11---|
|-----------------------------------------------------------|
|-----------------------------------------------------------|
|-----------------------------------------------------------|

Guitar II

|--------------------------------------------------------------|
|--------------------------------------------------------------|
|--------------------------------------------------------------|
|--------------------------------------------------------------|
|--------------------------------------------------------------|
|-0-0---0-4-4---4-5-5---5-4-4---4-5-5---5-6-6---6-7--7-7--2b3--|


Repeat verse.

Repeat pre-chorus.

Repeat chorus.


Solo

Guitar I

|---------------------------------------|
|-10-10-10----------10--13\-------------|
|----------12--11~-------------12-------|
|---------------------------11----11\9--|
|---------------------------------------|
|---------------------------------------|

|------------------------10--9b10r9-----|
|-10-10-10------------10------------10\-|
|----------12-11~--10-------------------|
|---------------------------------------|
|---------------------------------------|
|---------------------------------------|

Guitar II

|-------------------------------------------------------|
|-------------------------------------------------------|
|-------------------------------------------------------|
|-------------------------------------------------------|
|-------------------------------------------------------|
|-4--4--4--4--0-0--0-0-0---0-3--3--3--3--7-7--7-7-7--7--|

|----------------------------------------------------|
|----------------------------------------------------|
|----------------------------------------------------|
|----------------------------------------------------|
|----------------------------------------------------|
|-4--4--4--4--0-0--0-0-0---0-3--3--3--3--2--2--2--2--|

Then ...

|--------------------------------------------------------------|
|--------------------------------------------------------------|
|--------------------------------------------------------------|
|--------------------------------------------------------------| x3
|--------------------------------------------------------------|
|-0-0---0-4-4---4-5-5---5-4-4---4-5-5---5-6-6---6-7--7-7--2b3--|

|--------------------|
|--------------------|
|--------------------|
|--------------------|
|--------------------|
|-0-0---0-0-0---0-0--|

Repeat chorus.

Final solo

Guitar I

|----------------------------------------13b15r13------|
|-10-10-10-13b15-13b15-13b15-13b15-15-15---------------|
|-------------------------------------------------10~--|
|------------------------------------------------------|
|------------------------------------------------------|
|------------------------------------------------------|

|---------------------------------------------------------------|
|----13---------13----13-----------------13b15-13b15-13b15------|
|-10----10b10.5----11----12-12----9---10-------------------10~\-|
|-------------------------------7---8---------------------------|
|---------------------------------------------------------------|
|---------------------------------------------------------------|

Guitar II

|--------------------------------------------------------------|
|--------------------------------------------------------------|
|--------------------------------------------------------------|
|--------------------------------------------------------------|
|--------------------------------------------------------------|
|-0-0---0-4-4---4-5-5---5-4-4---4-5-5---5-6-6---6-7--7-7--2b3--|

End On

|------|
|------|
|------|
|------|
|------|
|-0-0--|
Tap to rate this tab
 
# A B C D E F G H I J K L M N O P Q R S T U V W X Y Z