Song name
# A B C D E F G H I J K L M N O P Q R S T U V W X Y Z

Ok Go - Youre So Hot tab

Artist:	Ok Go
Album:	Ok Go
Song:	You're So Hot


/	Pickslide


[Intro] x2
|---------------------------------------2-------------|
|---------------------------------------3-------------|
|-------------------0--0-------------0--2-------------|
|--0--0-------------2--2---(claps)---2----------------|
|--2--2---(claps)---3--3-------------3----------------|
|--3--3-----------------------------------------------|


[Verse] x3
|-----------------------------------------------------|
|-----------------------------------------------------|
|---------------------0-0-0-0-0-0-0-0-----------------|
|--0-0-0-0-0-0-0-0----2-2-2-2-2-2-2-2-----------------|
|--2-2-2-2-2-2-2-2----3-3-3-3-3-3-3-3-----------------|
|--3-3-3-3-3-3-3-3------------------------------------|


[Chorus]
|-----------------------------------------------------|
|-----------------------------------------------------|
|-------------4-4-4-4-4--0-0-0-0-0--------------------|
|--0-0-0-0-0--4-4-4-4-4--2-2-2-2-2--------------------|
|--2-2-2-2-2--2-2-2-2-2--3-3-3-3-3--------------------|
|--3-3-3-3-3------------------------------------------|

|-----------------------------------------------------|
|-----------------------------------------------------|
|-------------4-4-4-4-4--2-2-2-2-2--------------------|
|--0-0-0-0-0--4-4-4-4-4--2-2-2-2-2--0-0-0-0-0---------|
|--2-2-2-2-2--2-2-2-2-2--0-0-0-0-0--2-2-2-2-2---------|
|--3-3-3-3-3------------------------3-3-3-3-3---------|

|-----------------------------------------------------|
|-----------------------------------------------------|
|--0-0-0-0-0-0-0-0-0-0--------------------------------|
|--2-2-2-2-2-2-2-2-2-2---0-0-0-0-0-0------------------|
|--3-3-3-3-3-3-3-3-3-3---2-2-2-2-2-2------------------|
|------------------------3-3-3-3-3-3------------------|

|-------------------------------2-2-------------------|
|--------2-2--------------------3-3-------------------|
|--4-4---2-2--------------0-0---2-2-------------------|
|--4-4---2-2---0-0--------2-2---------0-0-------------|
|--2-2---------2-2--------3-3---------2-2-------------|
|--------------3-3--------------------3-3-------------|

|-------------------------------2-2-------------------|
|--------2-2--------------------3-3-------------------|
|--4-4---2-2--------------0-0---2-2-------------------|
|--4-4---2-2---0-0--------2-2---------0-0-------------|
|--2-2---------2-2--------3-3---------2-2-------------|
|--------------3-3--------------------3-3-------------|



[Verse] x3

[Chorus]



[Solo]
|-----------------------------------------------------|
|-----------------------------------------------------|
|---------------------0-0-0-0-0-0-0-0-----------------|
|--0-0-0-0-0-0-0-0----2-2-2-2-2-2-2-2-----------------|  x4
|--2-2-2-2-2-2-2-2----3-3-3-3-3-3-3-3-----------------|
|--3-3-3-3-3-3-3-3------------------------------------|

|-----------------------------------------------------|
|-----------------------------------------------------|
|---------0-------------0-------------0---------------|
|--0------2------0------2------0------2---------------|
|--2------3------2------3------2------3---------------|
|--3-------------3-------------3----------------------|

|-----------------------------------------------------|
|-----------------------------------------------------|
|---------------------0-0-0-0-0-0-0-0-----------------|
|--0-0-0-0-0-0-0-0----2-2-2-2-2-2-2-2-----------------|
|--2-2-2-2-2-2-2-2----3-3-3-3-3-3-3-3----////////////-|
|--3-3-3-3-3-3-3-3-----------------------////////////-|


[Pre-Outro]
|-----------------------------------------------------|
|-----------------------------------------------------|
|-------------4-4-4-4-4--0-0-0-0-0--------------------|
|--0-0-0-0-0--4-4-4-4-4--2-2-2-2-2--------------------|
|--2-2-2-2-2--2-2-2-2-2--3-3-3-3-3--------------------|
|--3-3-3-3-3------------------------------------------|

|-----------------------------------------------------|
|-----------------------------------------------------|
|-------------4-4-4-4-4--2-2-2-2-2--------------------|
|--0-0-0-0-0--4-4-4-4-4--2-2-2-2-2--0-0-0-0-0---------|
|--2-2-2-2-2--2-2-2-2-2--0-0-0-0-0--2-2-2-2-2---------|
|--3-3-3-3-3------------------------3-3-3-3-3---------|

|-----------------------------------------------------|
|-----------------------------------------------------|
|--0-0-0-0-0-0-0-0-0-0--------------------------------|
|--2-2-2-2-2-2-2-2-2-2---0-0-0-0-0-0------------------|
|--3-3-3-3-3-3-3-3-3-3---2-2-2-2-2-2------------------|
|------------------------3-3-3-3-3-3------------------|

|-----------------------------------------------------|
|-------2-2--------------------2-2-2-2-2-2------------|
|--4-4--2-2-------4-4-4-4-4-4--2-2-2-2-2-2------------|
|--4-4--2-2--0-0--4-4-4-4-4-4--2-2-2-2-2-2--0-0-0-0-0-|
|--2-2-------2-2--2-2-2-2-2-2---------------2-2-2-2-2-|
|------------3-3----------------------------3-3-3-3-3-|

|-----------------------------------------------------|
|---------------2-2-2-2-2-2---------------------------|
|--4-4-4-4-4-4--2-2-2-2-2-2---------------------------|
|--4-4-4-4-4-4--2-2-2-2-2-2--0-0-0-0-0-0--------------|
|--2-2-2-2-2-2---------------2-2-2-2-2-2--------------|
|----------------------------3-3-3-3-3-3--------------|


[Outro]
|-----------------------------------------------------|
|-----------------------------------------------------|
|-------------4-4-4-4-4--0-0-0-0-0--------------------|
|--0-0-0-0-0--4-4-4-4-4--2-2-2-2-2--------------------|
|--2-2-2-2-2--2-2-2-2-2--3-3-3-3-3--------------------|
|--3-3-3-3-3------------------------------------------|

|-----------------------------------------------------|
|-----------------------------------------------------|
|-------------4-4-4-4-4--2-2-2-2-2--------------------|
|--0-0-0-0-0--4-4-4-4-4--2-2-2-2-2--0-0-0-0-0---------|
|--2-2-2-2-2--2-2-2-2-2--0-0-0-0-0--2-2-2-2-2---------|
|--3-3-3-3-3------------------------3-3-3-3-3---------|

|-----------------------------------------------------|
|-----------------------------------------------------|
|--0-0-0-0-0-0-0-0-0-0--------------------------------|
|--2-2-2-2-2-2-2-2-2-2---0-0-0-0-0-0------------------|
|--3-3-3-3-3-3-3-3-3-3---2-2-2-2-2-2------------------|
|------------------------3-3-3-3-3-3------------------|

|-----------------------------------------------------|
|-------2-2--------------------2-2-2-2-2-2------------|
|--4-4--2-2-------4-4-4-4-4-4--2-2-2-2-2-2------------|
|--4-4--2-2--0-0--4-4-4-4-4-4--2-2-2-2-2-2--0-0-0-0-0-|
|--2-2-------2-2--2-2-2-2-2-2---------------2-2-2-2-2-|
|------------3-3----------------------------3-3-3-3-3-|

|-----------------------------------------------------|
|---------------2-2-2-2-2-2---------------------------|
|--4-4-4-4-4-4--2-2-2-2-2-2---------------------------|
|--4-4-4-4-4-4--2-2-2-2-2-2--0-0-0-0-0-0--------------|
|--2-2-2-2-2-2---------------2-2-2-2-2-2--------------|
|----------------------------3-3-3-3-3-3--------------|

|-----------------------------------------------------|
|---------------2-2-2-2-2-2---------------------------|
|--4-4-4-4-4-4--2-2-2-2-2-2---------------------------|
|--4-4-4-4-4-4--2-2-2-2-2-2--0-0-0-0-0-0--------------|
|--2-2-2-2-2-2---------------2-2-2-2-2-2--------------|
|----------------------------3-3-3-3-3-3--------------|

|-----------------------------------------------------|
|---------------2-2-2-2-2-2---------------------------|
|--4-4-4-4-4-4--2-2-2-2-2-2---------------------------|
|--4-4-4-4-4-4--2-2-2-2-2-2--0-0-0-0-------0--0-------|
|--2-2-2-2-2-2---------------2-2-2-2-------2--2-------|
|----------------------------3-3-3-3-------3--3-------|


Tabbed By: ShredderForever
Tap to rate this tab
# A B C D E F G H I J K L M N O P Q R S T U V W X Y Z