Guitaretab - guitar tabs
Song name
# A B C D E F G H I J K L M N O P Q R S T U V W X Y Z

Ok Go - A Good Idea At The Time tab

----------------------------------------------------------------------
			     A Good Idea At The Time Ė Ok Go
----------------------------------------------------------------------
Tabbed by: Sean Law
Email:

Tuning: Standard (EADGBe)

Intro/Verse:

e|------------------------|
B|------------------------|
G|------------------------|
D|------------------------|
A|--0--0--0--0--0--0------|
E|--5--5--5--5--5--5------|x alot
(After you play each note, press on the strings with your right hand to stop it from ringing out)

*This also sounds right, so play it whatever way you think sounds best*
e|------------------------|
B|------------------------|
G|------------------------|
D|--2--2--2--2--2--2------|
A|--0--0--0--0--0--0------|
E|------------------------|
_________________________________________________________________________
Bass- 
e|-----------------------------------------------|
B|-----------------------------------------------|
G|-----------------------------------------------|
D|-----------------------------------------------|
A|-------------------------5---------------------|
E|--5--0--3--5---0--3--5------0--3--5---0--3-----|
_________________________________________________________________________

So come on..
e|----------------------------------------------|
B|----------------------------------------------|
G|--7-------------------------------------------|
D|--7--7----7/10---12---------------------------|
A|--5--7----7/10---12---------------------------|
E|-----5----5/8----10---------------------------|

e|------------------------|
B|------------------------|
G|------------------------|
D|------------------------|
A|--0--0--0--0--0--0------|
E|--5--5--5--5--5--5------|



e|----------------------------------------------|
B|----------------------------------------------|
G|--7-------------------------------------------|
D|--7--7----7/10---12---------------------------|
A|--5--7----7/10---12---------------------------|
E|-----5----5/8----10---------------------------|

Pre Chorus-
[ Tab from: http://www.guitaretab.com/o/ok-go/92736.html ]
I appreciate your courtesy..
e|--------------------------------------------------------------|
B|--------------------------------------------------------------|
G|--4-4-4-4-----------------------------------------------------|
D|--4-4-4-4-4-4-4-4--7-7-7-7---4-4-4-4--------------------------|
A|--2-2-2-2-4-4-4-4--7-7-7-7---4-4-4-4--------------------------|
E|----------2-2-2-2--5-5-5-5---2-2-2-2--------------------------| x2
(On second time, donít play those last chords)

e|----------------------------------------------------------|
B|----------------------------------------------------------|
G|-4-4-4-4-4-4-4-4------------------------------------------|
D|-4-4-4-4-4-4-4-4-4-4-4-4--5-------------------------------|
A|-2-2-2-2-2-2-2-2-4-4-4-4--5-------------------------------|
E|-----------------2-2-2-2--3-------------------------------|

Chorus-
e|-----------------------------------------------------|
B|-----------------------------------------------------|
G|--7-7------------------------------------------------|
D|--7-7-7--7-7-7---7/10---12--12-12-12-----------------|
A|--5-5-7--7-7-7---7/10---12--12-12-12-----------------|
E|------5--5-5-5---5/8----10--10-10-10-----------------|

Pre Verse/ Post Chorus-

e|-------------------------------------|
B|---------------4h5-------------------|
G|-------------------------------5-----|
D|-------------------------------------|
A|------0--0--0---------0--0--0--------|
E|------5--5--5---------5--5--5--------|

2nd Verse-

e|------------------------------|
B|------------------------------|
G|------------------------------|
D|------------------------------|
A|------0--0--0--0--0--0--------|
E|------5--5--5--5--5--5--------| etc.


e|----------------------------------------------|
B|----------------------------------------------|
G|--7-------------------------------------------|
D|--7--7----7/10---12---------------------------|
A|--5--7----7/10---12---------------------------|
E|-----5----5/8----10---------------------------|


Then pre-chorus

Then chorus

And im still working on the solo





| /  slide up
| \  slide down
| h  hammer-on
| p  pull-off
| ~  vibrato
| +  harmonic
| x  Mute note
===============================================================================
Related for A Good Idea At The Time tab