Okean Elzy - Ne Putai tab

hi!
its my fingerstyle version of the okean elzy song "ne putai"
hope you'll like it =)
the video for the tab you can find in youtube by searching user "frozenskull2009"

 [intro]
    E flat major      B flat major    C7            
|E|-----------------|--------------|--------------|-3-3---3---3----|
|B|--4-4------------|-3-3---3--1---|-1-1-1--1-1-1-|-1-1---1---1--4-|
|G|--3-3-3--0--2--3-|-3-3-3-3----3-|-3------------|----------------|
|D|--1--------------|-3-3-3-3------|--------------|----------------|
|A|-----------------|-1------------|-3---3--3---3-|-3---3---3-3----|
|E|-----------------|--------------|--------------|----------------|

    E flat major     B f major   C7           C minor
  |----------------|-1---1-----|------------|--------------||-----
  |-8-8------------|-------3---|-1-1-1-1-1--|--------------||-----
  |-8-8-8------2-3-|-3-3-3-3-3-|-3----------|--2-----2-----||-----
  |-8-8-8--5-------|-3-3-3-3---|------------|--1---1-1-----||-----
  |-6--------------|-1---1-----|-3---3-3----|--3---3-------||-----
  |----------------|-----------|------------|--------------||-----

 [verse]

    E flat major             B flat major         C major   
  |-----------------------|---------------------|------------------|
  |--3--1-----------------|--3--3-3--3-3--3-1---|-1------1-1-1-----|
  |-------3-----3-----2-3-|-----------------3-3-|-0-3-0--0-0-0-0-3-|
  |--1------1---1---1-----|--3----3----3----3---|------------------|
  |-----------------------|--1----1----1----1---|-3------3-3-3-----|
  |-----------------------|---------------------|------------------|

     C7                     E flat major           B flat major  
  |----------------------|---------------------|-1--1-1-1--1----------|
  |--1---1---1-----1-1-3-|-3--1----------------|-------------3----1---|
  |--0-3---3---3-3-------|------3-----3----0-3-|-3----3----3---3----3-|
  |----------------------|-1------1---1--1-----|-3----3----3---3------|
  |--3-----3---3-----3---|---------------------|-1----1----1---1------|
  |----------------------|---------------------|----------------------|
   
     C major
  |----------------||-----
  |--1-------1--1--||-----
  |----3--0--0--0--||-----
  |----------------||-----
  |--3----3--3--3--||-----
  |----------------||-----

 [chorus]

     G major          D major - E flat   E flat - Am - G major
  |------------------|----------------|-1-1----------------|
  |-----3--1---3-----|--3-----3--1----|--------3--1--3-----|
  |----------3-0--0--|--2--2-------3--|-3----2----------0--|
  |------------------|--0--0--1----1--|-3----2-------------|
  |------------------|----------------|-1----0-------------|
  |------------3--3--|----------------|--------------3--3--|

   D major - E flat E flat - Am - G major  D major - E flat
  |----------------|--1-1---------------|----------------|
  |--3-----3--1----|--------3-1-1-3-----|--3-----3--1----|
  |--2--2-------3--|--3---2----------0--|--2--2-------3--|
  |--0--0--1----1--|--3---2-------------|--0--0--1----1--|
  |----------------|--1---0-------------|----------------|
  |----------------|------------3----3--|----------------|

   E flat - Am - C7           C7 - C minor - C7    
  |--1----------------------|----------------------------||-----|
  |----3--1-------1---------|--------1-1-----------------||-----|
  |--3-------2-3----3--0----|--0--0------3--0--3---------||-----|
  |--3-------2--------------|--------1----------------0--||-----|
  |--1-------0----3------3--|--3--3--3--------------3----||-----|
  |-------------------------|----------------------------||-----|

  Chords
    Am  |B flat maj| C maj| C min|  C7 | D major| E flat  | G major  
  |-----|----------|------|------|-----|--2-----|---------|--3-----|
  |--1--|----3-----|---1--|--1---|--1--|--3-----|--4----8-|--3-----|
  |--2--|----3-----|---0--|--0---|--3--|--2-----|--3-or-8-|--0-----|
  |--2--|----3-----|---2--|--1---|--2--|--0-----|--1----8-|--0-----|
  |--0--|----1-----|---3--|--3---|--3--|--------|-------6-|--2-----|
  |-----|----------|------|------|-----|--------|---------|--3-----|
Tap to rate this tab
 
# A B C D E F G H I J K L M N O P Q R S T U V W X Y Z