Song name
# A B C D E F G H I J K L M N O P Q R S T U V W X Y Z

Okean Elzy - Dla Tebe tab

youtube video: http://www.youtube.com/watch?v=GdsrFdpbVFc
please rate!=p

e|---------------------------------------------------------|
B|---------------------12~~~-------------------------------|
G|------------------12-------14-12-14~----12-14-14^-14-12--|
D|------------12-14--------------------14------------------|
A|------12-14----------------------------------------------|
E|---15----------------------------------------------------|

---------------------------------|
---15^-15------------------------|
----------12~~~-----12-----------|
-----------------14----14-13-----|
---------------------------------|
---------------------------------|

     *bend 14th fret and play 15th fret while bending
-----------------------------------------------------------|
--------------------15-------------------------------12----|
---------12-14-14^^^^^^-12--12~-------------------12-------|
---13h14--------------------14~-12h14p12----12-14----------|
-----------------------------------------14----------------|
-----------------------------------------------------------|

-------------------------------------------------------|
---15--------------------------------------------------|
------14---12------12------------------------12~-------|
--------------14------14-13~13~13~13~13~13~--14~-12----|
----------------------------------------------------14-|
-------------------------------------------------------|

---------------------------------------------------------10----------|
---5-5-5-7-7-7-8-8-8-10-10-10------7---7h8p7---7h8p7--10^^^^-10------|
---x-x-x-x-x-x-x-x-x-x--x--x---------9-------9-----------------------|
---2-2-2-4-4-4-5-5-5-7--7--7-----------------------------------------|
---------------------------------------------------------------------|
---------------------------------------------------------------------|

-------------------------------------------------|
------15-15-----15-15-----15-15--15^-15----------|
---14^^^^^^^-14^^^^^^^-14^^^^^^^--------14^-12---|
-------------------------------------------------|
-------------------------------------------------|
-------------------------------------------------|

-----------------------------------------------------||
---17^-15^----------------------------------12~~~~~--||
-----------16^--12-14-14^-14-12--11-12-12------------||
-----------------------------------------------------||
-----------------------------------------------------||
-----------------------------------------------------||

^ - bend
~ - vibrato
h - hammer on
p - pull off
x - mute string
Tap to rate this tab
 
# A B C D E F G H I J K L M N O P Q R S T U V W X Y Z