Song name
# A B C D E F G H I J K L M N O P Q R S T U V W X Y Z

Okkervil River - Westfall tab

-------------------------------------------------------------------------------
			     Westfall - Okkervil River
-------------------------------------------------------------------------------

I've combined the intro (my version, which I believe to be correct) and the verse,
 as well as most of the mandolin solo (written for guitar)

    Em                        C              G                     D            

e|-------------0-------------------0-----------3-------------------2----------|
B|-------------0-------------------1-----------3-------------------3----------|
G|-------------0--------------0----0-----------0-------------------2---0h2p0--|
D|-------2------------0h2----------------------0------------------------------|
A|-2------------------------3------------2-----------------0h3h5--------------|
E|-------------------------------------------3------0h3h5---------------------|

Verse:

Same chord progression as the intro.

Em   C   G    D

Solo:

e|----------------------------------------------------------------------------------|
B|--5--7--8--7--8/10--8--10--10/12--10--12--13--13--12--10--8--10--8--7--5--8--7--5-|
G|----------------------------------------------------------------------------------|
D|----------------------------------------------------------------------------------|
A|----------------------------------------------------------------------------------|
E|----------------------------------------------------------------------------------|

This is most of the mandolin solo
Tabbed by:Sean
Email:seann212@yahoo.com

Great song


Tap to rate this tab
# A B C D E F G H I J K L M N O P Q R S T U V W X Y Z