Song name
# A B C D E F G H I J K L M N O P Q R S T U V W X Y Z

Okkervil River - Unless Its Kicks tab

----------------------|
----------------------|
----------------------|
-9-9-11-9-9-11-9------|X2
-7-7-7--7-7-7-7-------|
-7-7-7--7-7-7-7-------|


----------------------|
----------------------|
----------------------|
----------------------|X2
-7-7--9-7-7-9-7-------|
-5-5--5-5-5-5-5-------|


----------------------|
----------------------|
----------------------|
-9-9-11-9-9-11-9------|X2
-7-7-7--7-7-7-7-------|
-7-7-7--7-7-7-7-------|

----------------------|
----------------------|
----------------------|
----------------------|X2
-7-7--9-7-7-9-7-------|
-5-5--5-5-5-5-5-------|

What gives this mess some grace unless it`s...

----------------------|
----------------------|
----------------------|
-9-9-11-9-9-11-9------|X2
-7-7-7--7-7-7-7-------|
-7-7-7--7-7-7-7-------|

...kicks man,unless it`s...
----------------------|
----------------------|
----------------------|
----------------------|X2
-7-7--9-7-7-9-7-------|
-5-5--5-5-5-5-5-------|

...fiction,unless`s
----------------------|
----------------------|
----------------------|
-11-11-11-11-11-11-11-|X2
-11-11-11-11-11-11-11-|
-9--9--9--9--9--9--9--|

...it`s sweat or it`s songs
----------------------|
----------------------|
-8-8-8-8-8-8-8--------|
-9-9-9-9-9-9-9--------|X2
-9-9-9-9-9-9-9--------|
-7-7-7-7-7-7-7--------|

...........
Tap to rate this tab
# A B C D E F G H I J K L M N O P Q R S T U V W X Y Z