Song name
# A B C D E F G H I J K L M N O P Q R S T U V W X Y Z

Okkervil River - Savannah Smiles tab

This is taken from a live version, played solo by Will but its pretty much identical to
album version. I've layed down the main verse and chorus patterns. These patterns aren't
for note as he changes the picking a little at times. Bring out the melody notes from 
with the base being covered by the thumb, the other notes that fill in the
aren't as important. Here's  how it goes:


capo 4th fret, fingerpicked


intro:

e---------------------------------------------------------------|
B---------------------------------------------------------------|
G-0h2---------------------------0-0h2---------------------0-2-4-|
D-0---0---0---0---0---0---0---0---0---0---0---0---0---0---0-----|
A---------------------------------------------------------------|
E---------------------------------------------------------------|

verse:

  D               C       G

e----------------------------------|
B----------------------------------|
G-2/4---4---2-------5-4-0---4------|
D-0---0---0---0-----------------5--|
A-----------------3----------------|
E-------------------------3---3----|

chorus:

  G               D               Bm              C

e-------3---------2-0--------------------------------------------|
B-0---------0-----------3---------3---------3-----3-1---0--------|
G---0-----------------------0-----------4-------------------0----|
D-----------------0---0---0---0---4---4---4---4------------------|
A-------------------------------------------------3---3---3---3--|
E-3---3---3---3--------------------------------------------------|


  Am              D               G               D

e-------0---3-----2-0-----------------------------------2--------|
B-----1-----------------3---------3-3---5---3---------------3----|
G-2-------------------------0---------------------2--------------|
D-----------------0---0---0---0-------------------0---0---0---0--|
A-0---0---0---0--------------------------------------------------|
E---------------------------------3---3---3---3------------------|

and tag this on at the end where necessary:

  Bm          C                   G               D

e-2-----3-----0---------------0--------------------------2-------|
B-3-----------------3-----1-3-----3-0-------0---------------3----|
G-4-------------------------------------0---------2--------------|
D-4---4---4---------------------------------------0---0---0---0--|
A-------------3---3---3---3---3----------------------------------|
E---------------------------------3---3---3---3------------------|

  Bm          C

e-2-----3-----0------------------|
B-3-----------------3-----1-0----|
G-4---------------------------2--|
D-4---4---4----------------------|
A-------------3---3---3---3---3--|
E--------------------------------|


intro

chorus

verse

Midnight late last week
My daughter's diary
Didn't know what it might be 'til it was open

I only read one page
And then put it away
Talk about your big mistakes
Hey Shan, nice going

chorus

Photos show no tears in her eyes,
All those pretty years gone by
I just cannot believe could do that to a child
A child
A child

verse

Shannon just flew down
Four days back in town
She sleeps and lies around and then she goes out
And then one day she's gone
What should I have done?
Joe turns the tv on with all the lights out

chorus

Photos on the wall
She's my baby
She's my baby doll
Is she someone I don't know at all?
Is she someone I betrayed?

chorus

It's a grey day in the fall
And the radio's singing down the hall
And I rise to turn it off cause all I'm seeing is her face
Age 8

cheers
Tap to rate this tab
# A B C D E F G H I J K L M N O P Q R S T U V W X Y Z