Song name
# A B C D E F G H I J K L M N O P Q R S T U V W X Y Z

Oktetas - Dainava tab

Help us improve GuitareTab! Take a short survey!
Dainava by Oktetas


E-----------------------------------------------------|
B-----------------3-----------------------------------|
G--4--2--0--0--4-----0--0--4--4--4--4--5--4--2--------|
D-----------------------------------------------------|
A-----------------------------------------------------|
E-----------------------------------------------------|

E-----------------------------------------------------|
B----------------3------------------------------------|
G--4--2--0--0--4-----0--0--4--4--4--4--5--4--3--------|
D-----------------------------------------------------|
A-----------------------------------------------------|
E-----------------------------------------------------|

E-----------------------------------------------------|
B--5--5-5--5--3--5--3--3--0--5--5-5?5--3--3--5--3-----|
G-----------------------------------------------------|
D-----------------------------------------------------|
A-----------------------------------------------------|
E-----------------------------------------------------|

E-----------2--3--2--0--------------------------------|
B--5--5--5--------------3--0--1-1--1-1--1--0----------|
G---------------------------------------------2--0-0--|
D-----------------------------------------------------|
A-----------------------------------------------------|
E-----------------------------------------------------|
Related for Dainava tab