Song name
# A B C D E F G H I J K L M N O P Q R S T U V W X Y Z

Ola Podrida - Cindy tab

-------------------------------------------------------------------------------
			     CINDY - Ola Podrida
-------------------------------------------------------------------------------
Tabbed by: a fan

Tuning: EADGA#D (You don't need to retune for this intro though)

Repeat this part 4X from beginning until "she through that in the sea, in the sea." 
e|--------------------------------------------------------------------------|
B|--------------------------------------------------------------------------|
G|----0----0----0----0----0----0----0----0----0----0----0----0----0----0----|
D|--------------------------------------------------------------------------|
A|------13--------13--------13--------13--------13--------13--------13------|
E|-11--------11--------11--------10--------11--------11--------11--------10-|

e|-------------------------------------------------|
B|-------------------------------------------------|
G|-0----0---------0----------0--------0---------0--|
D|-----------0----------0---------0--------0-------|
A|---13-\-------8----------8---------8--------8---/| slide back up to 13 to  
E|--------6----------6---------5---------5---------|     be ready to repeat.

From after "in the sea, in the sea" til "a thing in which to believe, believe, believe,"
e|--------------------------------------------------------------------------|
B|--------------------------------------------------------------------------|
G|---------0---------0---------0---------0---------0---------0---------0----|
D|----0--------0----------0---------0---------0---------0---------0---------|
A|------13--------13--------13--------13--------13--------13--------13------|
E|-11--------11--------11--------10--------11--------11--------11--------10-|

e|--------------------------------------------------------------------------|
B|--------------------------------------------------------------------------|
G|------0---------0----------0--------0---------0---------------------------|
D|-0---------0----------0---------0--------0--------------------------------|
A|---13---------8----------8---------8--------8-----------------------------|
E|--------6----------6---------5---------5----------------------------------|

When drums kick after "believe", the alternate tuning is important
e|-------0---------0------0------0------0------0------0------0------0-------|
B|-------0---------0------0------0------0------0------0------0------0-------|
G|-------0---------0------0------0------0------0------0------0------0-------|
D|-------0---------0------0------0------0------0------0------0------0-------|
A|------13--------13-----13-----13-----13-----13-----13-----13-----13-------|
E|-11-11------------11-11---------11-11---------10-10---------11-11---------|

e|-0------0-------0------0------0------0-----0----0----0----0----0----0-----|
B|-0------0-------0------0------0------0-----0----0----0----0----0----0-----|
G|-0------0-------0------0------0------0-----0----0----0----0----0----0-----|
D|-0------0-------0------0------0------0-----0----0----0----0----0----0-----|
A|13-----13------13-----13-----13-----13----13-\--8----8----8----8----8-----|
E|--11-11----------11-11---------10-10--------6--6------6--6------5--5------|

e|-0----0-------------------------------------------------------------------|
B|-0----0-------------------------------------------------------------------|
G|-0----0-------------------------------------------------------------------|
D|-0----0-------------------------------------------------------------------|
A|-8----8-------------------------------------------------------------------|
E|--5--5--------------------------------------------------------------------|

e|--------------------------------------------------------------------------|
B|--------------------------------------------------------------------------|
G|--------------------------------------------------------------------------|
D|--------------------------------------------------------------------------|
A|--------------------------------------------------------------------------|
E|---------------------------------------------------------------------------|


************************************

| /   slide up
| \   slide down
| h   hammer-on
| p   pull-off
| ~   vibrato
| +   harmonic
| x   Mute note
| b   Bend
| pb  Pre-bend
| br  Bend release
| pbr Pre-bend release
| brb Bend release bend

************************************
Tap to rate this tab
# A B C D E F G H I J K L M N O P Q R S T U V W X Y Z