Song name
# A B C D E F G H I J K L M N O P Q R S T U V W X Y Z

Olavi Uusivirta - Kauneus Sekoittaa Mun Pn tab

intro:

e|---------------------------------------------------------------------------|
B|---------------------------------------------------------------------------|
G|---------------------------------------------------------------------------|
D|------------------0--------------------------------------------------------|   x 3
A|----------0---2-------2---0-----------------------0---2---0---2------------|
E|--3---------------------------0-------0-------0----------------------------|


verse:

e|---------------------------------------------------------------------------|
B|---------------------------------------------------------------------------|
G|---------------------------------------------------------------------------|
D|---------------------------------------------------------------------------|   x 4
A|--5---5---5---5---5---5---5---5---2---2---2---2-------x---x---x---x--------|
E|--3---3---3---3---3---3---3---3---0---0---0---0-------x---x---x---x--------|

e|---------------------------------------------------------------------------|
B|---------------------------------------------------------------------------|
G|---------------------------------------------------------------------------|
D|--5---5---5---5---5---5---5---2---2---2---2---2---2---2---2---2------------|
A|--3---3---3---3---2---2---2---0---0---0---0---0---0---0---0---0------------|
E|---------------------------------------------------------------------------|

e|---------------------------------------------------------------------------|
B|---------------------------------------------------------------------------|
G|---------------------------------------------------------------------------|
D|--5---5---5---5---5---5---5---7---7---7---7---7---7---7---7---7------------|
A|--3---3---3---3---2---2---2---5---5---5---5---5---5---5---5---5------------|
E|---------------------------------------------------------------------------|


chorus:

G D C
Tap to rate this tab
# A B C D E F G H I J K L M N O P Q R S T U V W X Y Z