Guitaretab - guitar tabs
Song name
# A B C D E F G H I J K L M N O P Q R S T U V W X Y Z

Old 97s - Streets Of Where Im From tab

-------------------------------------------------------------------------------
		     STREETS OF WHERE I'M FROM - Old 97s
-------------------------------------------------------------------------------

Tabbed by: joecool71
Email: mattconnellan@yahoo.com, mconne@lincoln.navy.mil 

Tuning: Standard

Intro/verse (chords)
e|-0---0---0---3-|
B|-1---0---1---4-|
G|-0---1---2---5-|
D|-2---2---2---5-|
A|-3---2---0---3-|
E|-----0---------|

Intro lead
e|------------------------------------------------------------------------------|
B|--------------------0-3-0-3/5-5-3---1-3-1---1-3-1---1-1---1-4-4-4-4-3-4-3-1---|
G|---2-0------1-1-1-2---------------2-------2-------2-----2---5-5-5-5---------2-|
D|-2------2-2-------------------------------------------------------------------|
A|------------------------------------------------------------------------------|
E|------------------------------------------------------------------------------|

Prechorus
e|----------4-4-4---4-4-|
B|----------4-4-4-4-4-4-|
G|-5-5------5-5-5-5-5-5-|
D|-5-5--3-5-6-6-6-6---6-|
A|-3-3--3-5-6-6---6---6-|
E|------1-3-4-4---4---4-|

Chorus (chords)
e|-1---3---3---0-|
B|-1---3---3---1-|
G|-2---4---4---0-|
D|-3---5---5---2-|
A|-3---5---5---3-|
E|-1---3---3-----|

Solo
e|--------------------12-----------------------------------12---------->
B|-----13----15---15----15-13----13-15-----13-15-13----13----13-15-13->
G|-/12----12----12-------------14-------13-----------14---------------->
D|--------------------------------------------------------------------->
A|--------------------------------------------------------------------->
E|--------------------------------------------------------------------->
[ Tab from: http://www.guitaretab.com/o/old-97s/52229.html ]
e|----------12-----------------------12-------------------12-12-12-12-12---------------|
B|-13----13----13-15-13-15p13-----13----13-15-13-15p13----13-13-13-13-13-15-13-13------|
G|----14----------------------14-----------------------14-14-14-14-14-14---------14-12-|
D|-------------------------------------------------------------------------------------|
A|-------------------------------------------------------------------------------------|
E|-------------------------------------------------------------------------------------|

Outro (chords)
e|-0--------1----|
B|-1--------1--3-|
G|-0--------2--2-|
D|-2--------3--0-|
A|-3-------------|
E|---------------|

Outro lead
e|-3-1-0-------------------------|-------------------1----|-------------------1----|
B|-------3-1-0-------------------|-------1-0---3-1---1--3-|-------------------1-3-|
G|-------------2-0---------------|-----0-----2-----0-2--2-|-------2-0---2-0-2-2--2-|
D|-----------------3-2-0-------0-|-2-3---------------3--0-|-3-2-0-----3-------3--0-|
A|-----------------------3-2-3---|------------------------|------------------------|
E|-------------------------------|------------------------|------------------------|

Final chord: C!

LYRICS AND RIFF PLACEMENT

[INTRO W/ LEAD]
[VERSE] X3
I've been down
I've been down too far to care
I keep getting in my car but I'm not going anywhere
And I've been had
Well at least that's how it looks
And it's not funny like on t.v. and it's not smart like it is in books
And I wonder yeah I wonder how the world keeps spinnin' 'round
Where's a boy with bad intentions gonna settle down?
[PRECHORUS] X2
And I don't know what you've been told
[CHORUS] X2
The streets of where I'm from are paved with hearts instead of gold
[VERSE W/ SOLO]
[VERSE] X3
I recall when I was 23
Wondering how anyone could fall in love with me
But now I'm old and I'm well past 25
And I can't seem to fall in love no matter how I try
And I wonder where I'll wind up but I'm headed west I know
Wind my way through Texas and into New Mexico
[PRECHORUS] X2
And I don't know what you've been told
[CHORUS] X2
The streets of where I'm from are paved with hearts instead of gold
[PRECHORUS] X2
And I don't know what you've been told
[CHORUS] X3
The streets of where I'm from are paved with hearts instead of gold
[OUTRO W/ LEAD] X2

| /  slide up
| \  slide down
| h  hammer-on
| p  pull-off
| ~  vibrato
| +  harmonic
| x  Mute note
===============================================================================
Related for Streets Of Where Im From tab