Song name
# A B C D E F G H I J K L M N O P Q R S T U V W X Y Z

Old Crow Medicine Show - Wagon Wheel tab

This is my first tab. It has a folksy/swing feel to it.
Song: Wagon Wheel
Artist: Old Crow Medicine Show
Album: O.C.M.S.

THIS IS NOT A BANJO OR FIDDLE TAB. THIS IS A GUITAR TAB, TRANSLATED FROM BANJO AND FIDDLE.

I tried to find a good tab for this song online, but I wasn't happy with any of
the tabs I found; So I made one.
Special thanks to pwade89 on YouTube for slowing the song down and isolating the
fiddle and banjo parts.

I tabbed this song by ear, so it may not be 100% but it is fairly correct. If you
find a mistake, leave a comment below. Thanks!

Legend:

h -Hammer on
p -Pull off
/ -slide up
\ -slide down
^ -bend to note

_________________________________________BANJO_____________________________________
Fairly simple. This just repeats throughout the entire song.

e |--------3------------2------------0---------------0------|
b |-------3--3--3------3--3--3------0--0--0---------1--1--1-|
g |-----4-----4------2-----2------0-----0---------------0---|
d |----5------------4------------2--------------0h2---------|
a |--5------------5------------2------------2h3-------------|
e |---------------------------------------------------------|

Outro

e |-----------------------3-|
b |----------------------3--|
g |--4/7-4--------------4---|
d |--------7-5-2p0---0-5----|
a |----------------2--------|
e |-------------------------|

_________________________________________FIDDLE____________________________________

Relative to Capo. I play with Capo on 2nd.

e |---0-3p0-5/7-7-77/8\7-7p5-5-55h7p5-3h5p3-3-----2/3-33-5/7-8---7-10-12-10-7------|
b |--3----------------------------------------3/5--------------8--------------10-8-|
g |--------------------------------------------------------------------------------|
d |--------------------------------------------------------------------------------|
a |--------------------------------------------------------------------------------|
e |--------------------------------------------------------------------------------|

-----------10---------7/8-7\5---------0h3p0-------------------------------|
-10-8-10-8----8-12-10---------8\7-5---------3p1---------------------------|
------------------------------------7-----------4-2p0-2/4-4-5-4h5p4-4\2-2-|
--------------------------------------------------------------------------|
--------------------------------------------------------------------------|
--------------------------------------------------------------------------|

-----------------------------|
-----------------------------|
--4-2h4p2-2p0-0-2/4\2-2p0-0--|
-----------------------------|
-----------------------------|
-----------------------------|


e |---0-3p0-5/7-7---------7\5-5-3h5p3-7/8-7/8-7/8-7---7-5---------|
b |--3-------------8/10\8---------------------------8-----8-3/5\3-|
g |---------------------------------------------------------------|
d |---------------------------------------------------------------|
a |---------------------------------------------------------------|
e |---------------------------------------------------------------|

-------------------------------------------------|
-------------------------------------------------|
--2/4-4-5-4h5p4-4\2-2-4-2h4p2-2p0-0-2/4\2-2p0-0--|
-------------------------------------------------|
-------------------------------------------------|
-------------------------------------------------|


e |------------12/15-15---12---12/15-15---12---15/17-15/17-15/17-15/17-15\14------------|
b |---------------------15--15----------15--15------------------------------17\15-13\12-|
g |-----9h12p9--------------------------------------------------------------------------|
d |--12---------------------------------------------------------------------------------|
a |-------------------------------------------------------------------------------------|
e |-------------------------------------------------------------------------------------|

--15\14------------------------10-15-14h15p14-12---------------------------|
--------17\15-13\12-10\8-10/12-------------------15p12-10p8-10/13-15-16-17-|
---------------------------------------------------------------------------|
------------------------------------------------------------------12-12-12-|
---------------------------------------------------------------------------|
---------------------------------------------------------------------------|

[If your guitar is the same as mine, you can't play this higher up part.
Here I will tab the actual part and an octave lower (I think it still sounds good.
Especially with accompanying guitar.)]

Normal:

|----14--15--17--17/19-19---17/19-19----12h15p12---------------8p7-5-----------|
|--15--15--15--15---------15---------15---------15-12h13-15p12-------8-7p5---0-|
|--------------------------------------------------------------------------7---|
|------------------------------------------------------------------------------|
|------------------------------------------------------------------------------|
|------------------------------------------------------------------------------|

-------------------------------------------------|
-------------------------------------------------|
--2/4-4-5-4h5p4-4\2-2-4-2h4p2-2p0-0-2/4\2-2p0-0--|
-------------------------------------------------|
-------------------------------------------------|
-------------------------------------------------|

***Alternative***
Lower:
This is how I play it, just so it ends on the same ending riff that all the violin solos
in this song do.

|---2-3-5--5/7-7--3--5/7-7--5p3---------------------------------|
|--3-3-3-3-3--3--3-3-3--3--3----5h8p5-----------8p7-5-----------|
|-------------------------------------7-4h5-7p0-------7-5p4---0-|
|-----------------------------------------------------------7---|
|---------------------------------------------------------------|
|---------------------------------------------------------------|

-------------------------------------------------|
-------------------------------------------------|
--2/4-4-5-4h5p4-4\2-2-4-2h4p2-2p0-0-2/4\2-2p0-0--|
-------------------------------------------------|
-------------------------------------------------|
-------------------------------------------------|

Outro

e |--1/3-0------------------|
b |--------3-1-0------------|
g |--------------0-2-3-3^4~-|
d |-------------------------|
a |-------------------------|
e |-------------------------|
Tap to rate this tab
 
# A B C D E F G H I J K L M N O P Q R S T U V W X Y Z