Song name
# A B C D E F G H I J K L M N O P Q R S T U V W X Y Z

Old Fashion Knife Fight - Rapists And Murderers tab

Db half step down

-----------------------------------------------------------------|
-----------------------------------------------------------------|
-----------------------------------------------------------------|
-----------------------------------------------------------------|
-8888-11111111-7777-10101010-6666-9999------8-----8--------------|
---------------------------------------6h8h9-6h8h9---------------|
Four Times][[[[=p[-;;;;;;;;;;;;;;;;

-----------------------------------------------------------------|
-----------------------------------------------------------------|
-10101010-13131313-9999/17b--------------------------------------|
-----------------------------------------------------------------|
-----------------------------------------------------------------|
-----------------------------------------------------------------|

-----------------------------------------------------------------|
-----------------------------------------------------------------|
-----------------------------------------------------------------|
-----------------------------------------------------------------|
-8888-11111111-7777-10101010-6666-9999-8h11-10-8h11-10-----------|
-----------------------------------------------------------------| Two Times

-----------------------------------------------------------------|
-----------------------------------------------------------------|
-----------------------------------------------------------------|
-----------------------------------------------------------------|
-8888-11111111-8h11-10-8h11-10-6666-9999-6h9-8-6h9-8-------------|
-----------------------------------------------------------------| Two Times

-----------------------------------------------------------------|
-----------------------------------------------------------------|
-----------------------------------------------------------------|
-0000-00-00-000000-----------000000x-1-0-0-3-111-0-3-111---------|
-0000-00-00-000000-----------000000x-1-0-0-3-111-0-3-111---------|
-0000-00-00-000000-Two Times-000000x-1-0-0-3-111-0-3-111---------|
 ____ __ __ ______           ______  _ _ _ _ ___ _ _ ___

-----------------------------------------------------------------|
-----------------------------------------------------------------|
-----------------------------------------------------------------|
-000000x-1-0-0-3-1-0-3-1-------------000000x-1-0-0-2-----0-1-----|
-000000x-1-0-0-3-1-0-3-1-------------000000x-1-0-0-2-----0-1-----|
-000000x-1-0-0-3-1-0-3-1-Three-Times-000000x-1-0-0-2-3*b-0-1-2*b-| Four Times
 _____   _ _ _ _   _ _               ______  _ _ _ _     _ _

-----------------------------------------------------------------|
-----------------------------------------------------------------|
-----------------------------------------------------------------|
-0---------------------------------------------------------------|
-0---------------------------------------------------------------|
-0--End-on-this--------------------------------------------------|
 _

http://www.myspace.com/oldfashionknifefight
Tap to rate this tab
 
# A B C D E F G H I J K L M N O P Q R S T U V W X Y Z