Song name
# A B C D E F G H I J K L M N O P Q R S T U V W X Y Z

Old Gray - Her Tongue Was Tattooed On The Back Of Her Teeth tab

-------------------------------------------------------------------------------
Her Tongue Was Tattooed On The Back Of Her Teeth BY OLD GRAY

Please note that this is NOT exact, this is how I play and in this tab I aim 
to give you the basic outline for the song.  

Tuning: Low to High (F,A,C,G,C,E) It's a frickin sexy open FMaj9
And PUT A CAPO ON THE FIFTH FRET OF THE GUITAR


Intro, just add in random notes on the first and second string (notes in
 brackets in third bar)  Slowly build up and then destroy.

E|-------------|---------------|-(0)---|
C|-------------|---------------|-(0)---|
G|-5--4---2--4-|--5--9--10--9--|-------|
C|-------------|---------------|-------|
A|-------------|---------------|-------|
F|-4--2---0--0-|--4--7--0--(0)-|-------|


Heavier part
There are two ways of playing this, the one I've shown, and you can also play
 it muting the A (5th) string.  Just rock out to these chords.

E|-0---0---0---0---|--0---0---0----0--|
C|-0---0---0---5---|--0---0---0----0--|
G|-0---0---0---5---|--0---9---10---9--|
C|-4---2---0---0---|--4---7---0----0--|
A|-3---2---0---0---|--3---7---0----0--|
F|-4---2---0---0---|--4---7---0----0--|

These two riffs are the basis of the song, this is all you need to know to
 play the entire song except the twiddly bit.


Twiddly bit 
From watching live versions of the song, the guitarist uses two hands and 
taps this but I couldn’t figure out exactly how he did it, so I'll do my best
 to show you how I play it. (I think maybe he plays the bass notes from the 
riffs above with one hand and taps the other parts?)

E|---------------------------------------------------------------------------------------------------|
C|---7--0-------0---4-2-0------7--0---7-9-0---4-2-0---------0---4-2-0------0---------0--5-4-0--4-2-0-|
G|----------4-5-----------------------------------------4-5------------4-5--------4-5----------------|
C|---------------------------------------------------------------------------------------------------|
A|---------------------------------------------------------------------------------------------------|
F|(4)----------------------(2)-----------------------(0)-----------------------(0)-------------------|

If the notes are close beside eachother, do hammer-ons and pull-offs 
instead of picking...


I WILL LET YOU GO!!!!!!
IF YOU WANT ME TOOOOOOOGHASDGSHGIDSJFPSPOOOOOOOOO!!!!!

http://oldgray.tumblr.com/
Tap to rate this tab
# A B C D E F G H I J K L M N O P Q R S T U V W X Y Z