Song name
# A B C D E F G H I J K L M N O P Q R S T U V W X Y Z

Old Man Gloom - Skullstorm tab

Help us improve GuitareTab! Take a short survey!


-------------------------------------------------------------------------|
-------------------------------------------------------------------------|
---------------------12-12/14/15-----------------------------------------|
-0-0-0-0-0-0-0-0-0-0--------------11-11-0-11-11-0-11-11-0-11-5-5---------|        x3
-0-0-0-0-0-0-0-0-0-0-10-10/12/13-- 11-11-0-11-11-0-11-11-0-11-5-5--------|
-0-0-0-0-0-0-0-0-0-0--------------11-11-0-11-11-0-11-11-0-11-5-5---------|


-------------------------------------------------------------------|
-------------------------------------------------------------------|
---------------------12-12/14/15-----------------------------------|
-0-0-0-0-0-0-0-0-0-0--------------11-11-0-11-11-0-11-11-0-11-5-5---|
-0-0-0-0-0-0-0-0-0-0-10-10/12/13-- 11-11-0-11-11-0-11-11-0-11-5-5--|
-0-0-0-0-0-0-0-0-0-0--------------11-11-0-11-11-0-11-11-0-11-5-5---|

------------------------|
-33333333333------------|
-22222222222------------|
-00000000000------------|(pick scrape)
-00000000000------------|(pick scrape)
-00000000000------------|(pick scrape)

      (let ring)

------------------------------------------|
-----------------3---3-------3------------|
-10-9-6-5--------2---2-------2------------|
----------4-3-0000000000000000------------|           x2
-8-7-4-3--4-3-0000000000000000------------|
----------4-3-0000000000000000------------|

-----------------------------|
---------------3---3-------3-|
-13-12-8-7-----2---2-------2-|
-----------6-5-0000000000000-|
-11-10-6-5-6-5-0000000000000-|
-----------6-5-0000000000000-|


-------------------------------|
-----------------3---3-------3-|
-10-9-6-5--------2---2-------2-|
----------4-3-0000000000000000-|
-8-7-4-3--4-3-0000000000000000-|
----------4-3-0000000000000000-|


-----------|
-----------|
-----------|
-000---000-|
-000---000-|
-000---000-|


95% accurate. Will try to have lead guitar part up soon.
Related for Skullstorm tab