Guitaretab - guitar tabs
Song name
# A B C D E F G H I J K L M N O P Q R S T U V W X Y Z

Old Man Gloom - Girth And Greed tab

OLD MAN GLOOM
GIRTH AND GREED
ALBUM CHRISTMAS

Tuning: (B F# B E G# C#)

INTRO

C#|---------------------------------------------------------------------|
G#|---------------------------------------------------------------------|
E |--------------------------------------------------------------   X12-|
B |----13P12P0---8P07P0-5P0--011P05P0---------------------------------|
F#|---------------------------------------------------------------------|
B |---------------------------------------------------------------------|


C#|------------------------------------------------------------------|
G#|------------------------------------------------------------------|
E |------------------------------------------------------------------|  X4
B |----870-55----0---870-33----0---870-55---0--44---0--33------------|
F#|----870-55----0---870-33----0---870-55---0--44---0--33------------|
B |----870-55----0---870-33----0---870-55---0--44---0--33------------|


C#|------------------------------------------------------------------|
G#|------------------------------------------------------------------|
E |---------77---------76-----------77-----------6/------------------|
B |----870--77---0870--76-----0870--77----0870---6/------------------|
F#|----870--55---0870--54-----0870--55----0870---4/------------------|
B |----870-------0870---------0870 -------0870-----------------------|

[ Tab from: http://www.guitaretab.com/o/old-man-gloom/81310.html ]
C#|---------------------------------------------------------------------|
G#|---------------------------------------------------------------------|
E |---------------------------------------------------------------------|   X8
B |----13P12P0---8P07P0-5P0--011P05P0---------------------------------|
F#|---------------------------------------------------------------------|
B |---------------------------------------------------------------------|


C#|--------------------------------------------------------------------|
G#|--------------------------------------------------------------------|
E |---------77----------------76-----------------77--------76----------|
B |----870--77---X5----0870---76--X1-------870--77--0870--76----------|
F#|----870--55---------0870---54------------870--55--0870--54----------|
B |----870-------------0870-----------------870------0870--------------|


C#|---------------------------------------------------------------------|
G#|---------------------------------------------------------------------|
E |---------77----------------76-----------------77-----77---7//--------|
B |----870--77---X5----0870---76--X1-------870--77---8-77-8-7//--------|
F#|----870--55---------0870---54------------870--55---8-55-8-5//--------|
B |----870-------------0870-----------------870-------8----8------------|

Corrections to  david_davies90@homail.com  bo!!!
http://www.tortugarecordings.com/press/oldmangloom/
Related for Girth And Greed tab