Guitaretab - guitar tabs
Song name
# A B C D E F G H I J K L M N O P Q R S T U V W X Y Z

Old Man Gloom - Sleeping With Snakes tab

OLD MAN GLOOM

Sleeping with snakes

ALBUM (CHRISTMAS)

Tuning: (B F# B E G# C#)

INTRO

C#|---------------------------------------------------------------|
G#|---------------------------------------------------------------|
E |---7--7-77-777777---12-14-15- X3---1212121212121212121214-15-|  X2
B |---0--0-00-000000---0--0--0---------0-0-0-0-0-0-0-0-0-0--0--0--|
F#|---------------------------------------------------------------|
B |---------------------------------------------------------------|

WORK OUT THE STRUMMING PATTERN WITH THE RECORD


C#|----------------------------------------------------------------|
G#|----------------------------------------------------------------|
E |----------------------------------------------------------------|
B |----5555-5555-5555--78------------------------------------------|
F#|----5555-5555-5555--78------------------------------------------|
B |----5555-5555-5555--78------------------------------------------|


C#|--------------------------------------------------------------|
G#|--------------------------------------------------------------|
E |--------------------------------------------------------------|  X2
B |----7777-7777-7-5-7-8---X3----555555555555-7-8----------------|
F#|----7777-7777-7-5-7-8---------555555555555-7-8----------------|
B |----7777-7777-7-5-7-8---------555555555555-7-8----------------|

C#|-----------------------------------------------------------------|
G#|-----------------------------------------------------------^-----|
E |--------------14--10-6--7-77-------------------14-13---17-16-----|  X2
B |---0---0-----------------------X3---0---0------------------^-----|
F#|---0---0------12--8--4--5-55--------0---0------12-11---15-14-----|
B |---0-0-0-0--------------------------0-0-0-0----------------------|
        PM  PM				   PM	PM


C#|---------------------------------------------------------------|
G#|---------------------------------------------------------------|
E |---7--7-77-777777---12-14-15- X3------------------------------| X2
B |---0--0-00-000000---0--0--0---------555555555555-7-8-----------|
F#|------------------------------------555555555555-7-8-----------|
B |------------------------------------555555555555-7-8-----------|

[ Tab from: http://www.guitaretab.com/o/old-man-gloom/81337.html ]
C#|--------------------------------------------------------------|
G#|--------------------------------------------------------------|
E |--------------------------------------------------------------|  X1
B |----7777-7777-7-5-7-8---X3----555555555555-7-8----------------|
F#|----7777-7777-7-5-7-8---------555555555555-7-8----------------|
B |----7777-7777-7-5-7-8---------555555555555-7-8----------------|

GUITAR SOLO

GUITAR 1 (RYTHEM)
C#|--------------------------------------------------------------|
G#|--------------------------------------------------------------|
E |--------------------------------------------------------------|  X1
B |----7-----------------5-7-8-X3-----555555555555-7-8----------|
F#|----7-777-777-777-777-5-7-8---------555555555555-7-8----------|
B |----7-777-777-777-777-5-7-8---------555555555555-7-8----------|
PM       ... ... ... ...


GUITAR 2 (LEAD)
C#|--------------------------------------------------------------|
G#|----------------------------------------13h15^(17)15p13-------|
E |----14~~-12-14-15--14~~-12-14-15-14~~------------------------|
B |--------------------------------------------------------------|
F#|--------------------------------------------------------------|
B |--------------------------------------------------------------|

GUITAR 2 (LEAD)
C#|--------------------------------------------------------------|
G#|--------------------------------------------------------------|
E |----12--14-1512--14-1512--14-17~~\\\------------------------|
B |--------------------------------------------------------------|
F#|--------------------------------------------------------------|
B |--------------------------------------------------------------|

C#|------------------------------------------------------------------|
G#|-----------------------------------------------------------^------|
E |--------------14--10-6--7-77~-------------------14-13---17-16-----|  X2
B |---0---0--------------------~--X3---0---0------------------^------|
F#|---0---0------12--8--4--5-55~-------0---0-------12-11---15-14-----|
B |---0-0-0-0--------------------------0-0-0-0-----------------------|
        PM  PM				   PM	PM

OUTRO
C#|----------------------------------------------------------------|
G#|----------------------------------------------------------------|
E |----------------------------------------------------------------|
B |---7-5-0---6-~--7-5-0-7\\\\\-----------------------------------|
F#|---7-5-0---4-~--7-5-0-5\\\\\\----------------------------------|
B |---7-5-0--------7-5-0-------------------------------------------|

Corrections to  david_davies90@homail.com  bo!!!
http://www.tortugarecordings.com/press/oldmangloom/
Related for Sleeping With Snakes tab