Guitaretab - guitar tabs
Song name
# A B C D E F G H I J K L M N O P Q R S T U V W X Y Z

Oldfield Mike - Moonlight Shadow tab

e: Mon, 30 Mar 1998 11:16:59 KST
From: Byung-Moo Lee 

  TAB: Moonlight shadow by Mike Oldfield

  Subject:  Moonlight shadow
  Artist :  Mike Oldfield
  Album  :  CRISES
  From   :  Byung-Moo Lee (irish@hanmail.net)

  ==============================================
             TABLATURE EXPLANATION
  ==============================================
            h    -Hammering on
            p    -Pulling off
            /    -Slide
            U    -UP (bending or choking)
            D    -Down (bending or choking)
            UD   -Up & Down
            DP   -Down & Pulling off
            UDP  -UP & Down & Pulling off
  ==============================================


  [Intro / mute(lightly)]

  E--------------------------------------------|
  B-----------------9--------------------------|
  G----------9--11-----11--9-------------8-----|
  D-------9-------------------11--9--11--------|
  A---11------------------------------------9--|
  E--------------------------------------------|


  E-----------------------------------------|
  B-----------------------------------------|
  G---------8--9--9--8--8------8--9--11-----|
  D---9h11-----------------11------------9--|
  A-----------------------------------------|
  E-----------------------------------------|


  [lyrics]

      C#m                A 
  The last that ever she saw him

  B                 E         B 
  Carried away by a moonlight shadow

     C#m                   A
  He passed on worried and warning

  B                 E         B 
  Carried away by a moonlight shadow

  E                    B
  Lost in a river last Saturday night

  C#m  A          B
  Far away on the other side

         E                         B
  He was caught in the middle of a desperate fight

          C#m           A           B
  And she couldn't find how to push through

      C#m                       A  
  The trees that whisper in the evening

  B                 E         B
  Carried away by a moonlight shadow

         C#m                A
  Sing a song of sorrow and grieving

  B                 E         B
  Carried away by a moonlight shadow

  E                 B
  All she saw was a silhouette of a gun

  C#m  A          B  
  Far away on the other side

         E                   B
  He was shot six times by a man on the run

          C#m           A           B  
  And she couldn't find how to push through

  B(strongly...)
  I stay I pray

        E      A      B   
  I see you in heaven far away

  B(strongly...)
  I stay I pray

        E      A      B 
  I see you in heaven one day

  C#m            A
  Four am in the morning

  B                 E         B
  Carried away by a moonlight shadow

    C#m                 A
  I watched your vision forming

  B                 E         B  
  Carried away by a moonlight shadow

  E                   B
  Star was light in a silvery night

  C#m  A          B
  Far away on the other side

           E               B
  Will you come to talk to me this night

          C#m           A           B 
  But she couldn't find how to push through

  B(strongly...)
  I stay I pray

        E      A      B 
  I see you in heaven far away

  B(strongly...)
  I stay I pray

        E      A      B   
  I see you in heaven one day



  [solo]

  E------------------------------------|
  B------------9--10--9----------------|
  G---------9------------9-------------|
  D---9/11------------------11--9--11--|
  A------------------------------------|
  E------------------------------------|


  E---------9--11h12--14--14--14--7-----|
  B------9---------------------------7--|
  G---9---------------------------------|
  D-------------------------------------|
  A-------------------------------------|
  E-------------------------------------|


  E---------------7-----------7--|
  B---9/10-----9-----9-----9-----|
  G---------9-----------9--------|
  D------------------------------|
  A------------------------------|
  E------------------------------|


  E---------------------------------------|
  B---------------9--10--9----------------|
  G---8/9------9------------9-------------|
  D--------11------------------11--9--11--|
  A---------------------------------------|
  E---------------------------------------|


  E---------9--11h12--14--14--14--7-----------|
  B------9---------------------------7--9/10--|
  G---9---------------------------------------|
  D-------------------------------------------|
  A-------------------------------------------|
  E-------------------------------------------|


       U   U   U   U    DP              U   U   U    DP    UDP
  E---------------------------------|----------------------------|
  B---------------------------------|----------------------------|
  G---11--11--11--11--11--9--11--9--|--11--11--11--11--9--11--9--|
  D---------------------------------|----------------------------|
  A---------------------------------|----------------------------|
  E---------------------------------|----------------------------|


      UD                       Far away on the other side
  E-------------------------|----------------------------------------|
  B------------------9------|---------9------------9-----------7-----|
  G---11--11--9--11-----11--|------9-----9------9-----9-----8--------|
  D-------------------------|--11-----------11-----------9--------9--|
  A-------------------------|----------------------------------------|
  E-------------------------|----------------------------------------|


  E-------12--14--14/16--16--16--14--12--|
  B---12---------------------------------|
  G--------------------------------------|
  D--------------------------------------|
  A--------------------------------------|
  E--------------------------------------|


              UD
  E---16--16--14--14--12--14--12--14--|--14p12-----------------------|
  B-----------------------------------|---------14p12--14p12---------|
  G-----------------------------------|-----------------------13p11--|
  D-----------------------------------|------------------------------|
  A-----------------------------------|------------------------------|
  E-----------------------------------|------------------------------|


  E---------------------------------------------|
  B---------------------------------------------|
  G---11p9--11p9------------11--11--13------11--|
  D---------------11p9--11--------------14------|
  A---------------------------------------------|
  E---------------------------------------------|


      Dist.     U       U      UD          U       U      UD
  E----------------19------19----------|------19------19----------|
  B------------19------19------19--17--|--19------19------19------|
  G------------------------------------|----------------------18--|
  D------------------------------------|--------------------------|
  A------------------------------------|--------------------------|
  E------------------------------------|--------------------------|


           U       U        DP
  E-----------19------19------------------|
  B---16--17------17------17--16--17--19--|
  G---------------------------------------|
  D---------------------------------------|
  A---------------------------------------|
  E---------------------------------------|


       U       U      UD              U
  E-------19------19--------------|---------------------------------|
  B---19------19------19--17--19--|--19-----------------------------|
  G-------------------------------|------18--16--16h18--------------|
  D-------------------------------|---------------------18--16------|
  A-------------------------------|-----------------------------19--|
  E-------------------------------|---------------------------------|


  E------------------------------|----------------------------------|
  B------------------------------|----------------------------------|
  G------------------------------|----------------------------------|
  D---18-------------------------|--16--16--18--16--16--16--18--16--|
  A-------16--16------16--18h19--|----------------------------------|
  E---------------19-------------|----------------------------------|


       U       U        DP
  E-----------------------------------|
  B-----------------------------------|
  G-------16------16------------------|
  D---16------16------16--14--14--16--|
  A-----------------------------------|
  E-----------------------------------|


  E                         B
  Caught in the middle of a hundred and five


            U
  E----------------9---------------|
  B------------12-----12p9------9--|
  G--9h11--11---------------11-----|
  D--------------------------------|
  A--------------------------------|
  E--------------------------------|


  E-------9-------------------9--|---12------12------14~~~-----------|
  B---12-----12--9--12p9--12-----|-------14------14------------------|
  G------------------------------|-----------------------------------|
  D------------------------------|-----------------------------------|
  A------------------------------|-----------------------------------|
  E------------------------------|-----------------------------------|


  E                           B
  The night was heavy but the air was alive

      C#m           A           B 
  She couldn't find how to push through


  E------------------------------------|
  B------------9--10--9----------------|
  G---------9------------9-------------|
  D---9/11------------------11--9--11--|
  A------------------------------------|
  E------------------------------------|


                      Carried away 
  E---------9--11h12--14--14--14--7-----|
  B------9---------------------------7--|
  G---9---------------------------------|
  D-------------------------------------|
  A-------------------------------------|
  E-------------------------------------|


      by a moonlight shadow
  E---------------7-----------7--|
  B---9/10-----9-----9-----9-----|
  G---------9-----------9--------|
  D------------------------------|
  A------------------------------|
  E------------------------------|


  E---------------------------------------|
  B---------------9--10--9----------------|
  G---8/9------9------------9-------------|
  D--------11------------------11--9--11--|
  A---------------------------------------|
  E---------------------------------------|


                      Carried away by ~  [Fade out]
  E---------9--11h12--14--14--14--7---------------|
  B------9---------------------------7--9/10------|
  G---9-------------------------------------------|
  D-----------------------------------------------|
  A-----------------------------------------------|
  E-----------------------------------------------|
[ Tab from: http://www.guitaretab.com/o/oldfield-mike/13924.html ]
Related for Moonlight Shadow tab
Moonlight Shadow chords by Oldfield Mike