Song name
# A B C D E F G H I J K L M N O P Q R S T U V W X Y Z

Oldfield Mike - The Bell tab

 The Bell 

e|--------------------------------------------------|
B|--------------------------------------------------|
G|--------------------------------------------------|    x2
D|------------9-----9==11-9-------------------------|
A|7--7--7--7-----x-----------12-9-^11-12-11---------|
E|------------------------------------------9-=7----|



e|--------------------------------------------------|
B|--------------------------------------------------|
G|--------------------------------------------------|
D|------------9-----9==11-9-------------------------|
A|6--6--6--6-----x-----------12-9-^11-12-11---------|
E|------------------------------------------9-=7----|
 

e|--------------------------------------------------|
B|--------------------------------------------------|
G|--------------------------------------------------|    x2
D|------------9-----9==11-9-------------------------|
A|7--7--7--7-----x-----------12-9-^11-12-11---------|
E|------------------------------------------9-=7----|


e|--------------------------------------------------|
B|--------------------------------------------------|
G|--------------------------------------------------|
D|------------11----11=13-11------------------------|
A|---------------------------13-9-^11-12-11---------|
E|9--9--9--9-----x--------------------------9-=7----|


e|--------------------------------------------------|
B|--------------------------------------------------|
G|--------------------------------------------------|
D|------------9-----9-^11-9-------------------------|
A|9--9--9--9-----x-----------12-9-^11-12-11---------|
E|------------------------------------------9-=7----|


e|--------------------------------------------------|
B|--------------------------------------------------|
G|--------------------------------------------------|
D|------------9-----9==11-9-------------------------|
A|7--7--7--7-----x-----------12-9-^11-12-11-9--12---|
E|--------------------------------------------------|


e|--------------------------------------------------|
B|--------------------------------------------------|
G|--------------------------------------------------|
D|------------9-----9==11-9-------------------------|
A|---------------------------12-9-^11-12-11---------|
E|7--7--7--7-----x--------------------------9-=7----|

... and so on.
Tap to rate this tab
 
# A B C D E F G H I J K L M N O P Q R S T U V W X Y Z