Song name
# A B C D E F G H I J K L M N O P Q R S T U V W X Y Z

Oleander - Halo tab

Help us improve GuitareTab! Take a short survey!
Oleander
"Halo"
Unwind
Tabbed by: Diego "changfoogibperez"(changfoo33@yahoo.com)
Drop a half step (Eb,Ab,Db,Gb,Bb,eb)

pm=palm mute
Intro, Outro
------------------------------
------------------------------
--5----5-----5--4----4-----4--
--3----3----3---3----3----3---
--3-3--3--3-----3-3--3--3-----
------------------------------

After the intro goes this part:
--------------------------------------------------------------------
------0---0---0--------0---0---0--------3---3---3--------3---3---3--
------0---0---0--------0---0---0--------0---0---0--------0---0---0--
--------------------------------------------------------------------
--0-0---0---0---0--2-2---2---2---2--3-3---3---3---3--3-3---3---3----
--------------------------------------------------------------------
pm...

After the first time playing the part below, second guitar joins in with this
------7---------7----------8--
----8---------8----------8----
--9---------------------------
------------9---------10------
------------------------------
------------------------------

Chorus
 G                             D
There's an anchor around my heart
              F
Dragging me down
   C
Beneath the waves in silence I fall
 G                        D 
There's a halo above my head
               F
Spinning me round
    C                                G  
Cause I don't know if I'm alive or dead
                 D 
A dagger in my hand
             F
Bleeding me dry

Bridge:
-----------------------------------------------------------------
-----------------------------------------------------------------
--5--5-5--5--5-5--5-5--7--7-7--7--7-7--7-7-----------------------
--5--5-5--5--5-5--5-5--7--7-7--7--7-7--7-7--3--3-3--3--3-3--3-3--
--3--3-3--3--3-3--3-3--5--5-5--5--5-5--5-5--3--3-3--3--3-3--3-3--
--------------------------------------------1--1-1--1--1-1--1-1--
pm    - -     - -    -     - -     - -    -     - -     - -    -

Transcription:
     G   D   F   C
eb--3---2---0---0--
Bb--3---3---0---1--
Gb--0---2---2---0--
Db--0---0---3---2--
Ab--2---0---3---3--
Eb--3---0---1---0--

There are some small parts where a guitar is using a slide in the intro and in
the rest of the song, but I think that with this is just enough.

Thanks and make sure you post your opinion or correction on this tab.
Related for Halo tab