Song name
# A B C D E F G H I J K L M N O P Q R S T U V W X Y Z

Oleander - Runaway Train tab

Help us improve GuitareTab! Take a short survey!
Oleander - Runaway Train
Tabbed by Jabbs
billyjabbs@netscape.net

   Capo 1st fret

	Verses
    Em              Fm7                      Fm     C
E|------------------------------------------------------|
B|-------------0---H---1----0---H---1---------------5---|
G|-------------2-------2----2-------2--------1------5---|
D|-2--p--0-----3-------3----3-------3--------3------5---|
A|-2-----2-----------------------------------3------3---|
E|-0-----0-----------------------------------1----------|

  alternate
   Em              Fm7                       Fm     C
E|--------------------------------------------------------|
B|-------------0---H---1----3-3-3---1---------------5-----|
G|-------------2-------2----2-2-2---2--------1------5-----|
D|-2--p--0-----3-------3----3-3-3---3--------3------5-----|
A|-2-----2-----------------------------------3------3-----|
E|-0-----0-----------------------------------1------------|

Chorus

    F#  / G   /   A    F#  /   G  /  A    Fm   C

Verse
Its a corner that you turn

Its a lesson that you learn in time

Its a worry that you feel
Another scar that you conceal

From sight

Have I been away too long for me to say?

Have I been away too long for things to change?

Chorus
 Fm   C      F#   / G     /   A
From a runaway train
  F#   / G     /   A
Caught beneath the wheels
  F#   / G     /   A
Of a runaway train
  F#   / G     /   A  Fm   C

Verse

Every moment of the day

I feel it crumbling away if I

I only have myself to blame

For all the cracks within the frame that I find


Chorus
  F#   / G     /   A
From a runaway train
     F#   / G     /   A
Caught beneath the wheels
        F#   / G     /   A
Related for Runaway Train tab