Song name
# A B C D E F G H I J K L M N O P Q R S T U V W X Y Z

Oleander - Runaway Train chords

Highlighted       Show chord diagrams
-------------------------------------------------------------------------------
			     RUNAWAY TRAIN - Oleander
-------------------------------------------------------------------------------

Tabbed by: fp-lisa
Email: tTruz@web.de

Tuning: standard 

Well, I do not know the "real" names of one chord I used, so here are the chords:

     fm7     |  C#sus2  | C#X?     |  F#      |
e:|--1-------|--4-------|--4-------|--2-------|
b:|--1-------|--4-------|--4-------|--2-------|
g:|--1-------|--6-------|--5-------|--3-------|
D:|--1-------|--6-------|--6-------|--4-------|
A:|--3-------|--4-------|--4-------|--4-------|
E:|--1-------|--x-------|--x-------|--2-------|



Intro
| fm7 | fm7 | C#sus2 | C#X  C#sus2 | (2x) 

(I tabbed the little guitar melody at the end of the tab)


Verse
      fm7              
Its a corner that you turn
      fm7                      C#sus2   C#X  C#sus2
Its a lesson that you learn in time
      fm7       
Its a worry that you feel
        fm7   
Another scar that you conceal
      C#sus2  C#X  C#sus2
From sight


Pre Chorus
fm7 	                            C#sus2  C#X  C#sus2  
Have I been away too long for me to say?
fm7                                     C#sus2  C#X  C#sus2
Have I been away too long for things to change?


Chorus
F#          C#sus2  fm7 
  From a runaway train
                    F#
Caught beneath the wheels
        C#sus2  fm7
Of a runaway train


| fm7 | fm7 | C#sus2 | C#X  C#sus2 |


Verse
      fm7
Every moment of the day
           fm7            C#sus2  C#X  C#sus2
I feel it crumbling away if I
       fm7
I only have myself to blame
            fm7                           C#sus2  C#X C#sus2
For all the cracks within the frame that I find


Pre Chorus
fm7 	                            C#sus2  C#X  C#sus2  
Have I been away too long for me to say?
fm7                                     C#sus2  C#X  C#sus2
Have I been away too long for things to change?


Chorus
F#          C#sus2  fm7 
  From a runaway train
                    F#
Caught beneath the wheels
        C#sus2  fm7
Of a runaway train
                     F#         
And not know how it feels
               C#sus2
To be a runaway
F#            C#sus2
To be a runaway
F#                C#sus2......
To be a runaway yeah


fm7
Its alright, its ok, its alright


Here is the little guitar melody played in the intro and between the verses:
e:|-----------------------------------------------------------------|
b:|-------------------------------------------------------8-8s11-9--|
g:|-3s5----5-5-5s3---3-3-3s1---1-1-1p0--0-0p1-0---------------------|
D:|---------------------------------------------3s5-5s6-------------|
A:|-----------------------------------------------------------------|
E:|-----------------------------------------------------------------|



If there are problems, please contact me via email (tTruz@web.de).

Please rate this tab ;-)
Tap to rate this tab
# A B C D E F G H I J K L M N O P Q R S T U V W X Y Z