Guitaretab - guitar tabs
Song name
# A B C D E F G H I J K L M N O P Q R S T U V W X Y Z

Oleander - Are You There tab

Oleander
"Are you there?"
Unwind
tabbed by: Diego "changfoogibperez"(changfoo33@yahoo.com)
Drop D and half step (Db,Ab,Db,Gb,Bb,eb)

Notation:
b= bend
x= mute
\= slide down

Intro 
-------------------------------------------------------
--33333333333333333333333333333333333333333333333333b--
-------------------------------------------------------
-------------------------------------------------------
-------------------------------------------------------
-------------------------------------------------------
A little before the end of the intro bend up gradually.

Main Riff
-----------------------------------
-----------------------------------
-----------------------------------
--0--0-0-8--0-0-8--0-0-0-0-8-0--8--
--0--0-0-8--0-0-8--0-0-0-0-8-0--8--
--0--0-0-8--0-0-8--0-0-0-0-8-0--8--
For the verse part do this same thing but palm muted.

Chorus
----------------------------------------------------------
----------------------------------------------------------
------------5--5-5--5-5-5------------7--7-7--7\9-9--------
--3-3-x-x-x-5--5-5--5-5-5--5-5-x-x-x-7--7-7--7\9-9--------
--3-3-x-x-x-3--3-3--3-3-3--5-5-x-x-x-5--5-5--5\7-7--------
--3-3-x-x-x----------------5-5-x-x-x----------------------

----------------------------------------------------------
----------------------------------------------------------
------------5--5-5--5-5-5---------------------------------
--3-3-x-x-x-5--5-5--5-5-5--5--5-5-7--5-5-7-5--7-5-5--7-5--
--3-3-x-x-x-3--3-3--3-3-3--5--5-5-5--5-5-5-5--5-5-5--5-5--
--3-3-x-x-x----------------5--5-5-5--5-5-5-5--5-5-5--5-5--
[ Tab from: http://www.guitaretab.com/o/oleander/26854.html ]
Aprox. 1:49 second guitar is playing this along the main riff
------------------------------------------------------------------------
--3333333333333333\5555555555555555\8888888888888888\1010101010101010*--
------------------------------------------------------------------------
------------------------------------------------------------------------
------------------------------------------------------------------------
------------------------------------------------------------------------
*These are 10's not 1's and 0's

Bridge (2:55)
---- --- --- ---
---- --- --- ---
-10- -7- -5- -3-
-10- -7- -5- -3-
-8-- -5- -3- -1-
---- --- --- ---
Doesn't show the struming, it's very easy for you to figure it out.

Second time fill with this
-----------------------
-----------------------
--3-3-2-2-3-3-2-2-3-2--
--3-3-2-2-3-3-2-2-3-2--
--1-1-0-0-1-1-0-0-1-0--
-----------------------

Solo (It's very easy but I hope it's right and understandable)
------------------------------------------------------------------------------
------------------------------------------------------------------------------
---------------------------------------------------------2------2-------------
--7--7b--5-5---5----(7)-7b--5-5---5--------3-5--3--3-5-3---5--5---5-----------
-------------8---5--------------8---3--3-5------------------------------------
------------------------------------------------------------------------------

------------------------------------------------------------------------------
------------------------------------------------------------------------------
------------7-7--10--12--14--(14)-14b--12-12----12-----(14)-14b--12-12--------
--\7--10-10----------------------------------15----12------------------15--10-
------------------------------------------------------------------------------
------------------------------------------------------------------------------

---------------------------------------------------10-13-15-17--
---------------------------10-------10------10--13--------------
--------10-12-10--10-12-10----12-12----12-----------------------
--10-12---------------------------------------------------------
----------------------------------------------------------------
----------------------------------------------------------------

That's it, enjoy and make sure to tell me if there is any mistake.
Related for Are You There tab