Guitaretab - guitar tabs
Song name
# A B C D E F G H I J K L M N O P Q R S T U V W X Y Z

Oleander - Down When Im Loaded tab

Song: ďDown When Iím LoadedĒ
Performer: Oleander
Album: February Son

Tuning: low to high-- Db, Ab, Db, Gb, Bb, Eb
intro riff 4 bars (clean tone)         (distortion kicks in)
Eb------------------------------------]--------------------
Bb------------------------------------]--------------------
Gb-------------------12-12-12-11-14-14]--------------------    
Db------------------------------------]--------------------
Ab--5-5-5-5-5-5-5-5--10-10-10-9--12-12]-10-9-10-9-10-9-10-9  then play
intro 4 bars w/ dist.
Db--0-0-0-0-0-0-0-0--0--0--0--0-------]--------------------

Verse1(w/ intro riff clean): Who is to blame for the way that you are,
the things that you say
and all the things that you do?
Who is to blame for the way that you feel, the way that your living and
the way that you deal?

play intro riff 2 bars w/ distortion

(clean)
Who is right when everyone is wrong, was it fate that brought you here
against all your wishes?
Who is to blame for the way that you are, is it parental supervision or
the lack there of?

chorus:(w/ dist)
-----------------------------------------
-----------------------------------------
-----------------------------------------
-5-5-5-5-5-5-5-5--3-3-3-3-3-3-3-3--------
-5-5-5-5-5-5-5-5--3-3-3-3-3-3-3-3--------
-5-5-5-5-5-5-5-5--3-3-3-3-3-3-3-3--------
Chorus: I get down when Iím loaded
[ Tab from: http://www.guitaretab.com/o/oleander/42339.html ]
-----------------------------------------]--------------------------------
-----------------------------------------]--------------------------------
-----------------------------------------]--------------------------------
------10-------10-------10-------10------]5-5-5-5-5-5-5-5--3-3-3-3-1-1-1-1
------10-------10-------10-------10------]5-5-5-5-5-5-5-5--3-3-3-3-1-1-1-1
--0-0-10---0-0-10---0-0-10---0-0-10------]5-5-5-5-5-5-5-5--3-3-3-3-1-1-1-1
      Down---- when---- Iím---- loaded    oh     I    get    do------wn
-----------------------------------------]-------------------
-----------------------------------------]-------------------
-----------------------------------------]-------------------
--0-0-10---0-0-10---0-0-10---0-0-10------]-------------------
--0-0-10---0-0-10---0-0-10---0-0-10------]10-9-10-9-10-9-10-9
--0-0-10---0-0-10---0-0-10---0-0-10------]-------------------

Verse2(clean): Who is to blame for the reasons you feel like itís an
all or nothing kind of situation
Who is right when everyone is wrong, was it fate that brought you here
against all your wishes?
(distortion kicks in)
Itís the sound of super sad.  itís the kind of shit that makes me angry

your bad, oh wasting you time, your irresponsibility

Chorus

Bridge: 
------------------]--------------------------
------------------]--------------------------
------------------]---------------------5-7-7
---------------3--]--------------3--5-5-5-7-7
--5^3-2^3-2-0--3--]-5^3-2^3-2-0--3--5-5-3-5-5
---------------3--]--------------3--5-5------
            yeah                so educated
------------------]--------------------------
------------------]--------------------------
------------------]---------------------5-7-7
---------------3--]--------------3--5-5-5-7-7
--5^3-2^3-2-0--3--]-5^3-2^3-2-0--3--5-5-3-5-5
---------------3--]--------------3--5-5------
             soooo

Solo(with 4 bars intro riff clean, then 4 bars distorted)

Chorus

ends on bridge riff
Related for Down When Im Loaded tab