Song name
# A B C D E F G H I J K L M N O P Q R S T U V W X Y Z

Oliver Dragojevic - Cesarica tab

Title:		Cesarica
Artist:		Oliver Dragojević

Verse 1/3/5:
  D                      G                Asus4/A            Bm
--2------------------------------------------------------------0--------0--2---|
--3-------------3---2----2---0---2---3---2---2-2--3--3h5-------3---3-----------|
--2---2---2------------------------------2---------------------4---------------|
--0--------------------------------------2-------------------------------------|
-----------------------------------------0---------------------2---------------|
-------------------------3-----------------------------------------------------|

G                Asus4           D
---------------------------------------3---2--------------------|
--0--0--0--0----0-----------------------------------------------|
-----------------------2--2-0----2------------------------------|
---------------------------------0------------------------------|
----------------0-----------------------------------------------|
--3-------------------------------------------------------------|


Verse 2/4/6:
  D                         G              Asus4/A            Bm
---------------------------------------------------------------0--------0--2---|
--3-------------3---2---2---0---2---3---2---2-2--3--3h5--------3----3----------|
--2---2---2-----------------------------2----------------------4---------------|
--0-------------------------------------2--------------------------------------|
----------------------------------------0----------------------2---------------|
------------------------3------------------------------------------------------|

G            Asus4          D
--3-3-3-2---2--0--0-------------------(3)---(2)-----------|
--------------------------3------3------------------------|
---------------------------------2------------------------|
---------------------------------0------------------------|
------------0---------------------------------------------|
--3-------------------------------------------------------|


Chrous:

  D                                  G
---2---2--2--2--2h3--3h5--3--2--0----0---------------------------|
---3-------------------------------------3--2h3--0--2--3---------|
---2-------------------------------------------------------------|
---0-------------------------------------------------------------|
-----------------------------------------------------------------|
-------------------------------------3---------------------------|

A                                        D            A
-------------------------2--3--2------2---0h2p0-------------------|
2---2--2--2--3--3/5-------------------3-----------3---2-----------|
2-------------------------------------2---------------2-----------|
2-------------------------------------0---------------2-----------|
0-----------------------------------------------------0-----------|
------------------------------------------------------------------|

   F#                                      Bm                 G          D
---2--2--2--2--2h3--2--0-------------------0------------------3---3------5-----2---|
---2-----------------------------3---2-------3---2--3---------3--------------------|
---3-------------------------------------------------------------------------------|
---4---------------------------------------------------------------------0---------|
-------------------------------------------2---------------------------------------|
--------------------------------------------------------------3--------------------|


 A          D
-0---------------------------------------|
------3-----3----------------------------|
------------2----------------------------|
------------0----------------------------|
-0---------------------------------------|
-----------------------------------------|
Tap to rate this tab
 
# A B C D E F G H I J K L M N O P Q R S T U V W X Y Z