Song name
# A B C D E F G H I J K L M N O P Q R S T U V W X Y Z

Oliver James - Long Time Coming tab

Help us improve GuitareTab! Take a short survey!
--------------------------------------------------------------------------|
--------------------------------------------------------------------------|
--------------------------------------------------------------------------|
--9--9--9/7--7--7/5--5-----------------5----------------------------------|
--------------------------5\7--7--5\7-------------------------------------|
--------------------------------------------------------------------------|

------------------------------------7--8--7-------------------------------|
----------/10--8---------8--8--10/--8-------------------------------------|
---------/----------7/9-------------7-------------------------------------|
--7/9--7/-----------------------------------------------------------------|
--------------------------------------------------------------------------|
--------------------------------------------------------------------------|

This is the solo from "long time coming - by Oliver James"
Related for Long Time Coming tab