Song name
# A B C D E F G H I J K L M N O P Q R S T U V W X Y Z

Oliver Onions - Movin Cruisin tab

Hi! This is my first publidhed tab for the music of Bud Spencer and Terrence Hill movie 
called Double Trouble (Italian: Non c'č due senza quattro, Hungarian: Nincs kettő 
négy nélkül).
This is 100% correct!!!!!!



Intro / main part:

E||----------12----10------------|-------------------------|
B||--13---13-------------12------|-------------------------|
G||--------------------------12--|----------------------12-|
D||------------------------------|-------------------------|
A||------------------------------|-------------------------|
E||------------------------------|-------------------------|


-------------------------|------------------------------|
-------------------------|----------10------10----------|
--10--10-----------------|--12---12------12-------12----|
-------------------------|------------------------------|
-------------------------|------------------------------|
-------------------------|------------------------------|


And you can play the guitar like this:

--12----10-----8----10----|
--13----12----10----12----|
--12----12----10----12----|
--------------------------|
--------------------------| (reggae)
--------------------------|

or the chords: C(x3201x), G(320033), F(133211), G(320033)
It's up to you.

Tabbed by Gabe
Tap to rate this tab
 
# A B C D E F G H I J K L M N O P Q R S T U V W X Y Z