Song name
# A B C D E F G H I J K L M N O P Q R S T U V W X Y Z

Olivia Holt - Fearless tab

Hey guys!
This is my first tab, so please feel free to make a correction. I noticed that there
wasn't any tabs up for this song so I decided to give it a go, and I was surprised how easy
it is to play this song!
Just so you know, this needs to be played on an electric for the right sound. I guess
you could try on an acoustic but I think the strings won't meld together in the sound
properly. I don't know. Try to change it so you only play one string at a time if you 
want :)
Also, I didn't include the slidy thing (great English, but I have no idea what its
called) during the choruses because there wasn't enough time to get to the next note, 
but I
added on at the end so you can play it if you want to. I think it added a nice finish to 
the song, but you choose. After all, it's you who's playing the song :)
Okay, here goes.

Tuning: Standard
Tone: 10
Overdrive on

Chorus (piano plays and then guitar fades in. Dont ask me what the piano part is. I've
got absolutely no idea)
e|-----------------------|
B|-----------------------|
G|-----------------------|
D|-----------------------|
A|-----------------------|
E|77-55-77-55-77-55-77-55|

e|--------------------------------|
B|--------------------------------|
G|--------------------------------|
D|--------------------------------|
A|7777-7\5555-5\3333-3/77-7-7-7---|
E|5555-5\3333-3\1111-1/55-5-5-5-x2|

Verse 1
e|--------------------------------|
B|--------------------------------|
G|--------------------------------|
D|--------------------------------|
A|--------------------------------|
E|-7-7-7-7-7-7-7-7-7-7-7-7-7-7-7-7|

e|--------------------------------|
B|--------------------------------|
G|--------------------------------|
D|--------------------------------|
A|--------------------------------|
E|-5-5-5-5-5-5-5-5-7-7-7-7-7-7-7-7|

e|--------------------------------|
B|--------------------------------|
G|--------------------------------|
D|--------------------------------|
A|--------------------------------|
E|-7-7-7-7-7-7-7-7-7-7-7-7-7-7-7-7|

e|--------------------------------|
B|--------------------------------|
G|--------------------------------|
D|--------------------------------|
A|--------------------------------|
E|-5-5-5-5-5-5-5-5-5-5-5-5--------|

Chorus
e|--------------------------------|
B|--------------------------------|
G|--------------------------------|
D|--------------------------------|
A|7777-7\5555-5\3333-3/77-7-7-7---|
E|5555-5\3333-3\1111-1/55-5-5-5-x3|

Verse 2
e|--------------------------------|
B|--------------------------------|
G|--------------------------------|
D|--------------------------------|
A|--------------------------------|
E|5555-5\3333-3\1111-1/55-5-5-5-x2|

Chorus
e|--------------------------------|
B|--------------------------------|
G|--------------------------------|
D|--------------------------------|
A|7777-7\5555-5\3333-3/77-7-7-7---|
E|5555-5\3333-3\1111-1/55-5-5-5-x5|

e|-----------------------------------|
B|-----------------------------------|
G|-----------------------------------|
D|-----------------------------------|
A|7777-7\5555-5\3333-3/77-7-7-7-7777/|
E|5555-5\3333-3\1111-1/55-5-5-5-5555/|

And there we go! Please tell me what you think and tell me anything you think needs
changing :)
Tap to rate this tab
 
# A B C D E F G H I J K L M N O P Q R S T U V W X Y Z