Song name
# A B C D E F G H I J K L M N O P Q R S T U V W X Y Z

Olli Schulz Und Der Hund Marie - Der Moment chords

Highlighted       Show chord diagrams
Artist: Olli Schulz Und Der Hund Marie
Song: Der Moment
Album: Brichst Du Mir Das Herz, Dann Brech Ich Dir Die Beine

tabbed by: Eric Lambrecht
~~~~~~~~~~~~~

Eines meiner Lieblingslieder vom Olli Schulz ;)
Der klingt etwas schoener mit 'nem Capo am 1. Bund!
Die Akkorde waeren dann: e A C G
Aber man kann ja schlecht waehrend dem Spielen den Capo wechseln.

A  d2  A  d2

das a-Moll kann man ruhig etwas varieren:
e:------------------|
h:-----1-1-------1--|
G:-----2-2-------2--|
D:-2-------0-2---2--|
A:-0-----------0----|
E:------------------|
Das hat dann gleich noch ein bischen das Bass Thema drin ;)

A                        d2
  Wird sich wieder alles ändern 
A                       d2
  oder bleibt es wie es ist?
A                           d2
  Heut Nacht flieg ich über Dächer 
A                       d2
  weil sie mich endlich küsst

Pre_Chorus:
   d2                       C#2
e:------------------------|------------------------|
h:-5--5--5--5--5--5--5--5-|-4--4--4--4--4--4--4--4-|
G:-x--x--x--x--x--x--x--x-|-x--x--x--x--x--x--x--x-|
D:-4--4--4--4--4--4--4--4-|-3--3--3--3--3--3--3--3-|
A:-5--5--5--5--5--5--5--5-|-4--4--4--4--4--4--4--4-|
E:------------------------|------------------------|

        f                 B             C#            G#
Nur der Moment der besser ist als alles andere das du kennst
         f                B                            C#
Der Augenblick an dem du stehen bleibst und nicht mehr weg rennst

G# f C#
G# f C#

A  d2  
A  d2

A                  d2
  Alle haben ihren Glauben sie halten daran fest
A                          d2
  Nur was war noch mal der Grund der so viele glauben lässt
A                     d2
  Ihre Zukunft dauert ewig und das Jetzt ist nur ein Spiel
A                        d2
  Und man findet erst im Morgen ein wirkliches Gefühl

A  d2 

Pre-Chorus:
   G#                               C#     C#j7   C#       C#j7
e:---------------------------------|---------------------------------|
h:-4-4---4-4-4---4-4-4-x-4-4-4-x---|---------------------------------|
G:-5-5-x-5-5-5-x-6-5-5-x-5-5-5-x-6-|-6-6-x-5-5-5-x-6-6-6-x-5-5-5-x-5-|
D:-6-6-x-6-6-6-x-6-6-6-x-6-6-6-x-6-|-6-6-x-6-6-6-x-6-6-6-x-6-6-6-x-6-|  
A:-6-6-x-6-6-6-x-6-6-6-x-6-6-6-x-4-|-4-4-x-4-4-4-x-4-4-4-x-4-4-4-x-4-|
E:-4-4-x-4-4-4-x-4-4-4-x-4-4-4-x---|---------------------------------|
				Bis man bemerkt                 
daß etwas fehlt			Wie gut es ist 
wenn du erzählst		Von dem ...

    f                 B             C#            G#         
... Moment der besser ist als alles andere das du kennst
         f               B                             C#
Der Augenblick an dem du stehen bleibst und nicht mehr weg rennst

G# f C#
G# f C#

f   C   C#
f   C   C#

A  d2 (4x)

G#  C  C#2
G#  C  C#2
           f                   B            C#                   G#              
So lang du denkst, solltest du sagen daß es Angst gibt und viele Fragen
         f               D#           C#
Doch nie vergessen, dein Geheimnis zu bewahren  [4x]

G# f C#
Tap to rate this tab
 
# A B C D E F G H I J K L M N O P Q R S T U V W X Y Z