Song name
# A B C D E F G H I J K L M N O P Q R S T U V W X Y Z

Olli Schulz - Wenn Es Gut Ist tab

Olli Schulz is a great musican, but basicly it should work like this:

Capo 3

Tuning:
DADGDD

4x
D---0-0-0-0-0-0-0-0
D---0-0-0-0-0-0-0-0
G---0-0-0-0-0-0-0-0
D---0-0-0-0-0-0-0-0
A---4-5-5-5-5-5-5-5
D---0-0-0-0-0-0-0-0

Here are the chords:
2x
D---0-0-0-0-0-0-0-0----0-0-0-0-0-0-0-0----0-0-0-0-0-0-0-0----0-0-0-0-0-0-0-0
D---0-0-0-0-0-0-0-0----0-0-0-0-0-0-0-0----0-0-0-0-0-0-0-0----0-0-0-0-0-0-0-0
G---0-0-0-0-0-0-0-0----2-2-2-2-2-2-2-2----7-7-7-7-7-7-7-7----7-7-7-7-7-7-7-7
D---4-4-4-4-4-4-4-4----2-2-2-2-2-2-2-2----4-4-4-4-4-4-4-4----5-5-5-5-5-5-5-5
A---5-5-5-5-5-5-5-5----0-0-0-0-0-0-0-0----5-5-5-5-5-5-5-5----5-5-5-5-5-5-5-5
D---0-0-0-0-0-0-0-0----0-0-0-0-0-0-0-0----0-0-0-0-0-0-0-0----5-5-5-5-5-5-5-5

D---0-0-0-0-0-0-0-0----0-0-0-0-0-0-0-0
D---0-0-0-0-0-0-0-0----0-0-0-0-0-0-0-0
G---4-4-7-7-9-9-9-9----4-4-7-7-9-9-9-9
D---2-2-5-5-7-7-7-7----2-2-5-5-7-7-7-7
A---2-2-5-5-7-7-7-7----2-2-5-5-7-7-7-7
D---2-2-5-5-7-7-7-7----2-2-5-5-7-7-7-7

You can hear the rythm by listening to the song. This is not the 100% perfect tab, 
but it's a beginning :D
Tap to rate this tab
# A B C D E F G H I J K L M N O P Q R S T U V W X Y Z