Song name
# A B C D E F G H I J K L M N O P Q R S T U V W X Y Z

Olta Boka - Zemren E Lame Peng tab

This is the song that represented Albania in the Eurovision Song Contest in 2008, but
tab is for the original version of the song (as performed in "Festivali i Kėngės"). It
from Fm to F#m from the second verse and on. For the first chorus, use respectively the 
Cm, Fm, and Gm.

INTRO (x2):
e|------------------------|
B|------4-----------------|
G|----5-----5-----5-----3-|
D|--5-----5-----5-----3---|
A|3-----------3-----3-----|
E|------------------------|


e|------------------------|------------------------|
B|------4-----------------|------4-----------4-3---|
G|----5-----5-----5-----3-|----5-----5-----5-----5-|
D|--5-----5-----5-----3---|--5-----5-----5---------|
A|3-----------3-----3-----|3-----------3-----------|
E|------------------------|------------------------|
         Ora si zemėr troket       Ora e ēmendur rend

e|------------------------|------------------------|
B|------3-----------3-----|------------------3-----|
G|----3-----3-----3-----3-|------5---------3-----3-|
D|--3-----3-----3-----3---|----6-----6---3-----3---|
A|1-----------1-----3-----|--6-----6---1-----------|
E|------------------------|4-----------------------|
 Akrepa nuk ka           kohėn vodhe ti nga jeta ime


e|------------------------|------------------------|
B|------4-----------------|------4-----------4-3---|
G|----5-----5-----5-----3-|----5-----5-----5-----5-|
D|--5-----5-----5-----3---|--5-----5-----5---------|
A|3-----------3-----3-----|3-----------3-----------|
E|------------------------|------------------------|
        Bora e zėrin tėnd        mbi zemrėn time ra

e|------------------------|------------------------|
B|------3-----------3-----|------------------3-----|
G|----3-----3-----3-----3-|------5---------3-----3-|
D|--3-----3-----3-----3---|----6-----6---3-----3---|
A|1-----------1-----------|--6-----6---1-----------|
E|------------------------|4-----------------------|
 mbuloi               strehėn  fundit   tė dashurisė


e|------------------------|------1-----------1-----|
B|------4-----------4-----|------------------------|
G|----5-----5-----5-----5-|----1-----1-----1-----1-|
D|--5-----5-----5-----5---|--3-----3-----3-----3---|
A|3-----------3-----------|3-----------3-----------|
E|------------------------|------------------------|


e|------3-----------3-----|1-----------------------|
B|----1-----1-----1-----1-|1-----------------------|
G|--0-----0-----0-----0---|1-----------------------|
D|1-----------1-----------|------------------------|
A|------------------------|------------------------|
E|------------------------|------------------------|
                            Dhe ndalen akrepat atje


Chorus:

Ditė pas dite ne
rrahje pas rrahje
mė kot kėrkuam
or'e pėrkryer
njė zemėr jo kurrė s'mund tė jetė

natė pas nate ne
rrahje pas rrahje
ne tė larguar
por jo nuk mundem
se zemrėn tė dy e lamė peng
Tap to rate this tab
 
# A B C D E F G H I J K L M N O P Q R S T U V W X Y Z