Song name
# A B C D E F G H I J K L M N O P Q R S T U V W X Y Z

Omar Rodriguez-lopez - Que Disse Pessoa tab

Not much guitar but I'm bored

verse (improvise in Ab minor, or not)

|-4-4-4--2-4-4-4--7-4------4-6-7----------------------------|
|-4-4-4--2-4-4-4--7-4------------4-5------------------------|
|-4-4-4--2-4-4-4--7-4----------------4-6--------------------|
|-6-6-6--4-6-6-6--9-6--------------------5-6----------------|
|--------------------------------------------4-6-7----------|
|--------------------------------------------------4-6-7----|

doodly
|----------------------------------|
|----------------------------------|
|----------------------------------|
|-6-6-6-4-6-4---4------------------|
|-------------6---4-6-6-4-6--------|
|---------------------------4-4----|


chorus suddenly a B major appears!              chords

|-19-------16-------16----------18-------18---------7--9----16-|
|-------17-------17----------19-------19----18------7--9----16-|
|----16-------16-------16-18-------18---------------8--10---16-|
|---------------------------------------------------9--11------|
|--------------------------------------------------------------|
|--------------------------------------------------------------|
Tap to rate this tab
# A B C D E F G H I J K L M N O P Q R S T U V W X Y Z