Song name
# A B C D E F G H I J K L M N O P Q R S T U V W X Y Z

Omen - The Axeman tab

The Axeman
By Omen

Note: I Didnt Have Time To Figure out the solo Sorry.

This is a great song and a great Band Enjoy

"In The Days Of Darkness Men Feared Not The Sword And The Lance, Nor Did He Fear The 
of Fire, He Feared. . . THE AXEMAN!!!!!!!!

Main Riff
e---------------------------------------------------------------|
b---------------------------------------------------------------|
g---------------------------------------------------------------|
D--------9-------10/9--------9-------10/-9--------9-------10/-9-|
A--------7--------8/7--------7--------8/-7--------7--------8/-7-|
E--0-0-0---0-0-0------0-0-0-----0-0-0-------0-0-0---0-0-0-------|
PM - - -   - - -      - - -     - - -       - - -   - - -
[Next part of "Main riff"]
e---------------------|
b---------------------|
g---------------------|
D--------7--------5/7-|
A--------5--------3/5-|
E--0-0-0----0-0-0-----|[Repeat 6x]
PM - - -    - - -

Chorus[Bow down to the axeman....]
e-------------------------------------------------------------|
b-------------------------------------------------------------|
g-------------------------------------------------------------|
D--------9-------9-------7-------7-------5-------5------------|
A--------7-------7-------5-------5-------3-------3--------2---|
E--0-0-0---0-0-0---0-0-0---0-0-0---0-0-0---0-0-0---000000---3-|[Play 2x]
PM - - -   - - -   - - -   - - -   - - -   - - -   ------

Melody
e--------------------------------------------------|
b--------------------------------------------------|
g--------------------------------------------------|
D-----------------------------------12-------------|
A--7---9-10-9---10-12-10---12-14-15----14p12h14-10-|
E--------------------------------------------------|


Melody Octave [Rythm Guitar Plays this the second time]
e-------------------------------------------------------|
b-------------------------------------15----------------|
g--9---11-12-11---12-14-12---14-16-17----17-16p14h16-12-|
D-------------------------------------------------------|
A-------------------------------------------------------|
E-------------------------------------------------------|

Rythm Under Solo[This is not exact put it's how i play it]
e--------------------------------------------------------------------------|
b--------------------------------------------------------------------------|
g--------------------------------------------------------------------------|
D--------------------------------------------------------------------------|
A--2---------2---------4---------4---------5---------5-------7---------9/5-|
E--0--0-0-0--0--0-0-0--2--2-2-2--2--2-2-2--3--3-3-3--3-3-3-3-5--5-5-5--7/3-|
PM    - - -     - - -     - - -     - - -     - - -    - - -    - - -
                [^ ^ ^ ^ Repeat All As Necessary ^ ^ ^ ^]

LEDGER
                                               0
PM=Palm mute [All notes with - Under them like - Would be muted]

p=Pull off

h=Hammer on

/=Slide to
Tap to rate this tab
# A B C D E F G H I J K L M N O P Q R S T U V W X Y Z