Song name
# A B C D E F G H I J K L M N O P Q R S T U V W X Y Z

Omnia - Tine Bealtaine tab

Intro Tine Bealtaine by Omnia

tabbed by Loesjele


Capo 5th fret

D-------------------------------------------|
A-------------------------------------------|
G--------2--2-2---2--2-2---2--2-2-----2-2---|
E--------0--0-0-0-0--0-0-0-0--0-0-0-0-0-0---|
A--------0--0-0-3-0--0-0-0-0--0-0-3-2-2-2---|
E--0-3-0-----------------3------------3-3---|

D---------------------------------------------|
A---------------------------0--0--0-----------|
G---2--2-2---2--2-2----0-0--0--0--0-----------|
E---0--0-0-0-0--0-0-0--0-0--0--0--0-----------|
A---0--0-0-3-0--0-0-0--2-2--2--2--2-----------|
E-------------------3--3-3--3--3--3-----------|

D-------------------------------------------|
A-------------------------------------------|
G---2--2-2-2-2-2-2----2--2-2-2-2-2-2--------|
E---0--0-0-1-0-0-0-0--0--0-0-1-0-3-0--------|
A---0--0-0-0-0-3-2-0--0--0-0-0-0-0-2--------|
E------------------3---------------0--------|

D-------------------------------------------|
A-------------------------------------------|
G---2--2-2-2-2-2-2------0--0-0-0-0-0-0------|
E---0--0-0-1-0-0-0-0-0--0--0-0-0-0-0-0------|
A---0--0-0-0-0-3-2-0-0--2--2-2-2-2-2-2------|
E--------------------3--3--3-3-3-3-3-3------|


PS; Use a plectrum! or else a coin if Some Little Buggers stole them from you again.
If you want the whole song tabbed, email me, and I'll try to tab the rest.
Greenthings Loesjele
messsemaker@gmail.com
Tap to rate this tab
# A B C D E F G H I J K L M N O P Q R S T U V W X Y Z